PrimaNota.ru - самый крупный в мире бесплатный архив песенных текстов, аккордов, табулатур и нот


Armageddon - Welcome To Hell - таба, видео

Регистрация Запомнить меня
Войти через:  Facebook Google Twitter Vk Yandex Mail.ru

Armageddon - Welcome To Hell - таба, видео

Печатать
Просмотров: 130
Уроки эстрадного вокала в Санкт-Петербурге
As recorded by Armageddon


Transcribed by carnagereap666   



Gtr I (E A D G B E) - 'Untitled'
Gtr II (E A D G B E) - 'Untitled'

  Q=234
 4/4
  Gtr I
                                                  ~
  Q  Q  H       Q  Q  Q  Q    Q  Q  H       Q  Q  Q  Q
|-------------|-------------|-------------|--------------|
|-------------|-------------|-------------|--------------|
|-------------|-------------|-------------|--------------|
|-------------|-------------|-------------|--------------|
|-2--2--------|-2--2--2--2--|-2--2--------|-2--2--2--2---|
|-0--0--------|-0--0--0--0--|-0--0--------|-0--0--0--0---|
|
| Gtr II
| PM-------------------------------------------------|
| Q  Q  Q  Q    Q  Q  Q  Q    Q  Q  Q  Q    Q  Q  Q  Q
|-------------|-------------|-------------|--------------|
|-------------|-------------|-------------|--------------|
|-------------|-------------|-------------|--------------|
|-------------|-------------|-------------|--------------|
|-------------|-------------|-------------|--------------|
|-0--0--0--0--|-0--0--0--0--|-0--0--0--0--|-0--0--0--0---|


   Q      H.          Q  Q  H       Q  Q  Q  Q    Q  Q  H
|-15tr16------------|-------------|-------------|-------------|
|-------------------|-------------|-------------|-------------|
|-------------------|-------------|-------------|-------------|
|-------------------|-------------|-------------|-------------|
|-------------------|-2--2--------|-2--2--2--2--|-2--2--------|
|-------------------|-0--0--------|-0--0--0--0--|-0--0--------|
|
|  PM------------------------------------------------------|
|  Q      Q   Q  Q    Q  Q  Q  Q    Q  Q  Q  Q    Q  Q  Q  Q
|-------------------|-------------|-------------|-------------|
|-------------------|-------------|-------------|-------------|
|-------------------|-------------|-------------|-------------|
|-------------------|-------------|-------------|-------------|
|-------------------|-------------|-------------|-------------|
|--0------0---0--0--|-0--0--0--0--|-0--0--0--0--|-0--0--0--0--|


  Q  Q  Q  Q     Q      H.          Q  Q  Q  Q    Q  Q  Q  Q
|-------------|-15tr16------------|-------------|-------------|
|-------------|-------------------|-------------|-------------|
|-------------|-------------------|-------------|-------------|
|-------------|-------------------|-------------|-------------|
|-2--2--2--2--|-------------------|-2--2--2--2--|-2--2--2--2--|
|-0--0--0--0--|-------------------|-0--0--0--0--|-0--0--0--0--|
|
| PM-------------------------------------------------------|
| Q  Q  Q  Q     Q      Q   Q  Q    Q  Q  Q  Q    Q  Q  Q  Q
|-------------|-------------------|-------------|-------------|
|-------------|-------------------|-------------|-------------|
|-------------|-------------------|-------------|-------------|
|-------------|-------------------|-------------|-------------|
|-------------|-------------------|-------------|-------------|
|-0--0--0--0--|--0------0---0--0--|-0--0--0--0--|-0--0--0--0--|


   ~~~
   Q   Q      H       Q  Q  Q  Q    Q  Q  Q  Q
|-13h=15tr16--------|-------------|-------------|
|-------------------|-------------|-------------|
|-------------------|-------------|-------------|
|-------------------|-------------|-------------|
|-------------------|-2--2--2--2--|-2--2--2--2--|
|-------------------|-0--0--0--0--|-0--0--0--0--|
|
|  PM----------------------------------------|
|  Q   Q      Q  Q    Q  Q  Q  Q    Q  Q  Q  Q
|-------------------|-------------|-------------|
|-------------------|-------------|-------------|
|-------------------|-------------|-------------|
|-------------------|-------------|-------------|
|-------------------|-------------|-------------|
|--0---0------0--0--|-0--0--0--0--|-0--0--0--0--|


   ~~~
   Q   Q      H       Q  Q  Q  Q    Q  Q  Q  Q    Q  Q  Q  Q
|-13h=15tr16--------|-------------|-------------|-------------|
|-------------------|-------------|-------------|-------------|
|-------------------|-------------|-------------|-------------|
|-------------------|-------------|-------------|-------------|
|-------------------|-2--2--2--2--|-2--2--2--2--|-2--2--2--2--|
|-------------------|-0--0--0--0--|-0--0--0--0--|-0--0--0--0--|
|
|  PM------------------------------------------------------|
|  Q   Q      Q  Q    Q  Q  Q  Q    Q  Q  Q  Q    Q  Q  Q  Q
|-------------------|-------------|-------------|-------------|
|-------------------|-------------|-------------|-------------|
|-------------------|-------------|-------------|-------------|
|-------------------|-------------|-------------|-------------|
|-------------------|-------------|-------------|-------------|
|--0---0------0--0--|-0--0--0--0--|-0--0--0--0--|-0--0--0--0--|


                      ~~~             ~~~
  Q  Q  Q  Q    Q  Q  Q    Q    Q  Q  Q    Q    Q  Q  Q  Q
|-------------|---------------|---------------|-------------|
|-------------|---------------|---------------|-------------|
|-------------|---------------|---------------|-------------|
|-------------|---------------|---------------|-------------|
|-2--2--2--2--|---------------|---------------|-2--2--2--2--|
|-0--0--0--0--|-0--2--5b7--2--|-0--1--3b5--1--|-0--0--0--0--|
|
| PM-----------------------------------------------------|
| Q  Q  Q  Q    Q  Q  Q    Q    Q  Q  Q    Q    Q  Q  Q  Q
|-------------|---------------|---------------|-------------|
|-------------|---------------|---------------|-------------|
|-------------|---------------|---------------|-------------|
|-------------|---------------|---------------|-------------|
|-------------|---------------|---------------|-------------|
|-0--0--0--0--|-0--0--0----0--|-0--0--0----0--|-0--0--0--0--|


                 ~~~
  Q  Q  Q  Q     Q   Q      H       Q  Q  Q  Q    Q  Q  Q  Q
|-------------|-13h=15tr16--------|-------------|-------------|
|-------------|-------------------|-------------|-------------|
|-------------|-------------------|-------------|-------------|
|-------------|-------------------|-------------|-------------|
|-2--2--2--2--|-------------------|-2--2--2--2--|-2--2--2--2--|
|-0--0--0--0--|-------------------|-0--0--0--0--|-0--0--0--0--|
|
| PM-------------------------------------------------------|
| Q  Q  Q  Q     Q   Q      Q  Q    Q  Q  Q  Q    Q  Q  Q  Q
|-------------|-------------------|-------------|-------------|
|-------------|-------------------|-------------|-------------|
|-------------|-------------------|-------------|-------------|
|-------------|-------------------|-------------|-------------|
|-------------|-------------------|-------------|-------------|
|-0--0--0--0--|--0---0------0--0--|-0--0--0--0--|-0--0--0--0--|


   ~~~
   Q   Q      H       Q  Q  Q  Q    Q  Q  Q  Q
|-13h=15tr16--------|-------------|-------------|
|-------------------|-------------|-------------|
|-------------------|-------------|-------------|
|-------------------|-2--2--2--2--|-2--2--2--2--|
|-------------------|-2--2--2--2--|-2--2--2--2--|
|-------------------|-0--0--0--0--|-0--0--0--0--|
|
|  PM----------------------------------------|
|  Q   Q      Q  Q    Q  Q  Q  Q    Q  Q  Q  Q
|-------------------|-------------|-------------|
|-------------------|-------------|-------------|
|-------------------|-------------|-------------|
|-------------------|-------------|-------------|
|-------------------|-------------|-------------|
|--0---0------0--0--|-0--0--0--0--|-0--0--0--0--|


   ~~~
   Q   Q      H       Q  Q  Q  Q    Q  Q  Q  Q
|-13h=15tr16--------|-------------|-------------|
|-13h=15------------|-------------|-------------|
|-------------------|-------------|-------------|
|-------------------|-------------|-------------|
|-------------------|-2--2--2--2--|-2--2--2--2--|
|-------------------|-0--0--0--0--|-0--0--0--0--|
|
|  PM----------------------------------------|
|  Q   Q      Q  Q    Q  Q  Q  Q    Q  Q  Q  Q
|-------------------|-------------|-------------|
|-------------------|-------------|-------------|
|-------------------|-------------|-------------|
|-------------------|-------------|-------------|
|-------------------|-------------|-------------|
|--0---0------0--0--|-0--0--0--0--|-0--0--0--0--|


   ~~~                                             ~~~~~~~~~~
   Q   Q      H       Q  Q  Q  Q    Q  Q  Q  Q     Q   Q   Q  Q
|-------------------|-------------|-------------|-13h=15s=13-----|
|-------------------|-------------|-------------|----------------|
|-------------------|-------------|-------------|----------------|
|-13h=15tr16--------|-------------|-------------|----------------|
|-------------------|-------------|-------------|----------------|
|-------------------|-7--7--7--7--|-7--7--7--7--|----------------|
|
|  PM----------------------------------------|
|  Q   Q      Q  Q    Q  Q  Q  Q    Q  Q  Q  Q     W
|-------------------|-------------|-------------|----------------|
|-------------------|-------------|-------------|----------------|
|-------------------|-------------|-------------|----------------|
|-------------------|-------------|-------------|----------------|
|-------------------|-------------|-------------|----------------|
|--0---0------0--0--|-0--0--0--0--|-0--0--0--0--|----------------|


  Q  Q  Q  Q    Q  Q  Q  Q     Q   Q      Q  Q    Q  Q  Q  Q
|-0--2--3--5--|-3--2--0-----|--0---2------3--5--|-3--2--0-----|
|-------------|----------3--|-------------------|----------3--|
|-------------|-------------|-------------------|-------------|
|-------------|-------------|-------------------|-------------|
|-------------|-------------|-------------------|-------------|
|-------------|-------------|-------------------|-------------|
|
|                              ~~~
| Q  Q  Q  Q    Q  Q  Q  Q     Q   Q      H       Q  Q  Q  Q
|-------------|-------------|-13h=15tr16--------|-------------|
|-------------|-------------|-------------------|-------------|
|-------------|-------------|-------------------|-------------|
|-------------|-------------|-------------------|-------------|
|-2--2--2--2--|-2--2--2--2--|-------------------|-2--2--2--2--|
|-0--0--0--0--|-0--0--0--0--|-------------------|-0--0--0--0--|


     TP
  Q  Q  Q  Q     Q   Q      Q  Q    Q  Q  Q  Q    Q  Q  Q  Q
|-------0--2--|--3---5------3--2--|-0--0--2--3--|-5--3--2-----|
|-2--0--------|-------------------|-------------|-------------|
|-------------|-------------------|-------------|-------------|
|-------------|-------------------|-------------|-------------|
|-------------|-------------------|-------------|-------------|
|-------------|-------------------|-------------|----------0--|
|
|                ~~~
| Q  Q  Q  Q     Q   Q      H       Q  Q  Q  Q    Q  Q  Q  Q
|-------------|-13h=15tr16--------|-------------|-------------|
|-------------|-------------------|-------------|-------------|
|-------------|-------------------|-------------|-------------|
|-------------|-------------------|-------------|-------------|
|-2--2--2--2--|-------------------|-2--2--2--2--|-2--2--2--2--|
|-0--0--0--0--|-------------------|-0--0--0--0--|-0--0--0--0--|


  Q  Q  Q  Q    Q  Q  Q  Q     Q   Q      H      Q  Q  Q  Q
|-------------|-0-----------|------------------|-------------|
|----------0--|----0--------|------------------|-------------|
|-------1-----|-------1-----|------------------|-------------|
|----3--------|----------3--|------------------|-------------|
|-2-----------|-------------|--2---------------|-------------|
|-------------|-------------|------0-----------|-0--2--5--2--|
|
|                              ~~~               PM-------|
| Q  Q  H       Q  Q  Q  Q     Q   Q      H      Q  Q  Q  Q
|-------------|-------------|-13h=15tr16-------|-------------|
|-------------|-------------|------------------|-------------|
|-------------|-------------|------------------|-------------|
|-------------|-------------|------------------|-------------|
|-2-----------|-2--2--2--2--|------------------|-2--2--2--2--|
|-0-----------|-0--0--0--0--|------------------|-0--0--0--0--|


  Q  Q  H       Q  Q  Q  Q    Q  Q  H       Q  Q  Q  Q
|-------------|-------------|-------------|-------------|
|-------------|-------------|-------------|-------------|
|-------------|-------------|-------------|-------------|
|-------------|-------------|-------------|-------------|
|-------------|-------------|-------------|-------------|
|-0-----------|-0--1--3--1--|-0-----------|-0--2--5--2--|
|
| PM-------------------------------------------------|
| Q  Q  Q  Q    Q  Q  Q  Q    Q  Q  Q  Q    Q  Q  Q  Q
|-------------|-------------|-------------|-------------|
|-------------|-------------|-------------|-------------|
|-------------|-------------|-------------|-------------|
|-------------|-------------|-------------|-------------|
|-2--2--2--2--|-2--2--2--2--|-2--2--2--2--|-2--2--2--2--|
|-0--0--0--0--|-0--0--0--0--|-0--0--0--0--|-0--0--0--0--|


  Q  Q  Q  Q    Q  Q  H       Q  Q  Q  Q    Q  Q  Q  Q
|-------------|-------------|-------------|-------------|
|-------------|-------------|-5--5--5--5--|-5--5--5--5--|
|-------------|-------------|-------------|-------------|
|-------------|-------------|-------------|-------------|
|-------------|-------------|-------------|-------------|
|-0--1--3--1--|-0-----------|-------------|-------------|
|
| PM-------------------------------------------------|
| Q  Q  Q  Q    Q  Q  Q  Q    Q  Q  Q  Q    Q  Q  Q  Q
|-------------|-------------|-------------|-------------|
|-------------|-------------|-------------|-------------|
|-------------|-------------|-------------|-------------|
|-------------|-------------|-------------|-------------|
|-2--2--2--2--|-2--2--2--2--|-2--2--2--2--|-2--2--2--2--|
|-0--0--0--0--|-0--0--0--0--|-0--0--0--0--|-0--0--0--0--|


  Q  Q  Q  Q    Q  Q  Q  Q    Q  Q  Q  Q    Q  Q  Q  Q
|-------------|-------------|-------------|-------------|
|-5--5--5--5--|-5--5--5--5--|-4--4--4--4--|-4--4--4--4--|
|-------------|-------------|-------------|-------------|
|-------------|-------------|-------------|-------------|
|-------------|-------------|-------------|-------------|
|-------------|-------------|-------------|-------------|
|
| PM-------------------------------------------------|
| Q  Q  Q  Q    Q  Q  Q  Q    Q  Q  Q  Q    Q  Q  Q  Q
|-------------|-------------|-------------|-------------|
|-------------|-------------|-------------|-------------|
|-------------|-------------|-------------|-------------|
|-------------|-------------|-------------|-------------|
|-2--2--2--2--|-2--2--2--2--|-2--2--2--2--|-2--2--2--2--|
|-0--0--0--0--|-0--0--0--0--|-0--0--0--0--|-0--0--0--0--|


  Q  Q  Q  Q    Q  Q  Q  Q    Q  Q  Q  Q    Q  Q  Q  Q
|-------------|-------------|-------------|-------------|
|-4--4--4--4--|-4--4--4--4--|-------------|-------------|
|-------------|-------------|-3--3--3--3--|-3--3--3--3--|
|-------------|-------------|-------------|-------------|
|-------------|-------------|-------------|-------------|
|-------------|-------------|-------------|-------------|
|
| Q  Q  Q  Q    Q  Q  Q  Q    Q  Q  Q  Q    Q  Q  Q  Q
|-------------|-------------|-------------|-------------|
|-------------|-------------|-------------|-------------|
|-------------|-------------|-------------|-------------|
|-------------|-------------|-------------|-------------|
|-2--2--2--2--|-2--2--2--2--|-2--2--2--2--|-2--2--2--2--|
|-0--0--0--0--|-0--0--0--0--|-0--0--0--0--|-0--0--0--0--|


  Q  Q  Q  Q    Q  Q  Q  Q    Q  Q  Q  Q    Q  Q  Q  Q
|-------------|-------------|-------------|-------------|
|-------------|-------------|-------------|-------------|
|-3--3--3--3--|-3--3--3--3--|-------------|-------------|
|-------------|-------------|-4--4--4--4--|-4--4--4--4--|
|-------------|-------------|-------------|-------------|
|-------------|-------------|-------------|-------------|
|
| PM---------------------|
| Q  Q  Q  Q    Q  Q  Q  Q    Q  Q  Q  Q    Q  Q  Q  Q
|-------------|-------------|-------------|-------------|
|-------------|-------------|-------------|-------------|
|-------------|-------------|-------------|-------------|
|-------------|-------------|-------------|-------------|
|-2--2--2--2--|-2--2--2--2--|-2--2--2--2--|-2--2--2--2--|
|-0--0--0--0--|-0--0--0--0--|-0--0--0--0--|-0--0--0--0--|


  Q  Q  Q  Q    Q  Q  Q  Q    Q  Q  Q  Q    Q  Q  Q  Q
|-------------|-------------|-------------|-------------|
|-------------|-------------|-5--5--5--5--|-5--5--5--5--|
|-------------|-------------|-------------|-------------|
|-4--4--4--4--|-4--4--4--4--|-------------|-------------|
|-------------|-------------|-------------|-------------|
|-------------|-------------|-------------|-------------|
|
| Q  Q  Q  Q    Q  Q  Q  Q    Q  Q  Q  Q    Q  Q  Q  Q
|-------------|-------------|-------------|-------------|
|-------------|-------------|-------------|-------------|
|-------------|-------------|-------------|-------------|
|-------------|-------------|-------------|-------------|
|-2--2--2--2--|-2--2--2--2--|-2--2--2--2--|-2--2--2--2--|
|-0--0--0--0--|-0--0--0--0--|-0--0--0--0--|-0--0--0--0--|


  Q  Q  Q  Q    Q  Q  Q  Q    Q  Q  Q  Q    Q  Q  Q  Q
|-------------|-------------|-------------|-------------|
|-4--4--4--4--|-4--4--4--4--|-------------|-------------|
|-------------|-------------|-3--3--3--3--|-------------|
|-------------|-------------|-------------|-4--4--4--4--|
|-------------|-------------|-------------|-------------|
|-------------|-------------|-------------|-------------|
|
| Q  Q  Q  Q    Q  Q  Q  Q    Q  Q  Q  Q    Q  Q  Q  Q
|-------------|-------------|-------------|-------------|
|-------------|-------------|-------------|-------------|
|-------------|-------------|-------------|-------------|
|-------------|-------------|-------------|-------------|
|-2--2--2--2--|-2--2--2--2--|-2--2--2--2--|-2--2--2--2--|
|-0--0--0--0--|-0--0--0--0--|-0--0--0--0--|-0--0--0--0--|


                        ~~~~~
   Q   Q   Q      Q     Q      Q   Q  Q    Q  Q  Q  Q    Q  Q   Q   Q
|--------------------|-12b14--15--15-----|-------------|-------12------|
|--------------------|----------------6h=|=7h=8h=9p=8p=|=7p=6------12--|
|--------------------|-------------------|-------------|---------------|
|--------------------|-------------------|-------------|---------------|
|-(2)----------------|-------------------|-------------|---------------|
|--0---1S=21tr22-----|-------------------|-------------|---------------|
|
|  Q   Q   Q      Q     Q      Q   Q  Q    Q  Q  Q  Q    Q  Q   Q   Q
|--------------------|-------------------|-------------|---------------|
|--------------------|--5------5---5--5--|-5--5--5--5--|---------------|
|--------------------|-------------------|-------------|-6--6---6---6--|
|--------------------|-------------------|-------------|---------------|
|--2---2---2------2--|-------------------|-------------|---------------|
|--0---0---0------0--|-------------------|-------------|---------------|


                                  ~
   Q   Q   Q   Q    Q  Q  Q  Q    Q  Q  Q  Q    Q  Q  H
|-------------24--|-------------|-5-----------|---------------*|
|-17------17------|-------------|-------------|---------------*|
|-----15----------|----------4--|----4--------|---------------*|
|-----------------|-------3-----|-------3-----|---------------*|
|-----------------|----2--------|----------2--|---------------*|
|-----------------|-0-----------|-------------|-0-------------*|
|
|  Q   Q   Q   Q    Q  Q  Q  Q    Q  Q  Q  Q    Q  Q  Q   Q
|-----------------|-------------|-------------|---------------*|
|--5---5---5---5--|-------------|-5--5--5--5--|-5--5--5--(5)--*|
|-----------------|-6--6--6--6--|-------------|-6--6--6--(6)--*|
|-----------------|-------------|-------------|---------------*|
|-----------------|-------------|-------------|---------------*|
|-----------------|-------------|-------------|---------------*|



Duration Legend
---------------
W - whole; H - half; Q - quarter; E - 8th; S - 16th; T - 32nd; X - 64th; a - acciaccatura
+ - note tied to previous; . - note dotted; .. - note double dotted
Uncapitalized letters represent notes that are staccato (1/2 duration)
Irregular groupings are notated above the duration line
Duration letters will always appear directly above the note/fret number it represents the
duration for.  Duration letters with no fret number below them represent rests.  Multi-
bar rests are notated in the form Wxn, where n is the number of bars to rest for.  Low
melody durations appear below the staff

Tablature Legend
----------------
 h   - hammer-on
 p   - pull-off
 b   - bend
 pb  - pre-bend
 r   - bend release (if no number after the r, then release immediately)
 /\  - slide into or out of (from/to "nowhere")
 s   - legato slide
 S   - shift slide
 - natural harmonic
[n]  - artificial harmonic
n(n) - tapped harmonic
 ~   - vibrato
 tr  - trill
 T   - tap
 TP  - trem. picking
 PM  - palm muting
\n/  - tremolo bar dip; n = amount to dip
 \n  - tremolo bar down
 n/  - tremolo bar up
/n\  - tremolo bar inverted dip
 =   - hold bend; also acts as connecting device for hammers/pulls
 <> - volume swell (louder/softer)
 x   - on rhythm slash represents muted slash
 o   - on rhythm slash represents single note slash

Misc Legend
-----------
 |  - bar
||  - double bar
||o - repeat start
o|| - repeat end
*|  - double bar (ending)
 :  - bar (freetime)
 $  - Segno
 &  - Coda
Tempo markers -  = BPM(8/16=s8/s16), where s8 = swing 8ths, s16 = swing 16ths

Добавлено: 26.06.2012
Другие материалы по этой песне:

Страница создана 19.06.2012
http://primanota.ru/armageddon/welcome-to-hell-chords.htm
Привет, Гость.
Предлагаем пройти революционный курс по гитаре.
Подарок от PrimaNota.Ru, забирай!