PrimaNota.ru - самый крупный в мире бесплатный архив песенных текстов, аккордов, табулатур и нот


Armada - A Line In The Sand - таба, видео

Регистрация Запомнить меня
Войти через:  Facebook Google Twitter Vk Yandex Mail.ru

Armada - A Line In The Sand - таба, видео

Печатать
Просмотров: 307
Уроки эстрадного вокала в Санкт-Петербурге
Acoustic                                                      fill 
|--3--2--0--2---0---3--2--0--2---0---3--2--0--2---0---3---2--|--------0h2--|
|--3--3--3--3---3---3--3--3--3---3---3--3--3--3---3---3---3--|----3--------|
|--2--2--2--2---0---2--2--2--2---0---2--2--2--2---0---0---2--|------2------|
|--0--0--0--0---2---0--0--0--0---2---0--0--0--0---2---0---0--|--0----------|
|---------------3----------------2----------------3---2------|-------------|
|---------------0----------------0--------------------3------|-------------|

Electric comes in with the fill and palys the same as electric

piano
|---10---8---7---5---7---3---2---0---14---10---7---3---2-----------------|
|------------------------------------------------------------------------|
|------------------------------------------------------------------------|
|------------------------------------------------------------------------|
|------------------------------------------------------------------------|
|------------------------------------------------------------------------|

Solo with slide
 
 X3
|---------------------------|--------------------------------------------|
|---------------------------|--------------------------------------------|
|--/9~~-/-11\--/-7\--/-4~~--|--4/-7-/-9~~--11--9--11~~-------------------|
|---------------------------|--------------------------------------------|
|---------------------------|--------------------------------------------|
|---------------------------|--------------------------------------------|
Добавлено: 05.05.2012
Другие материалы по этой песне:
  • Аккорды и текст

Страница создана 05.05.2012
http://primanota.ru/armada/a-line-in-the-sand-chords.htm
Привет, Гость.
Предлагаем пройти революционный курс по гитаре.
Подарок от PrimaNota.Ru, забирай!