PrimaNota.ru - самый крупный в мире бесплатный архив песенных текстов, аккордов, табулатур и нот


Arma Gathas - The Lies Of Man - таба, видео

Регистрация Запомнить меня
Войти через:  Facebook Google Twitter Vk Yandex Mail.ru

Arma Gathas - The Lies Of Man - таба, видео

Печатать
Просмотров: 127
-------------------------------------------------------------------------------
                          The Lies Of Man - Arma Gathas
-------------------------------------------------------------------------------

ARTIST   : Arma Gathas
SONG     : The Lies Of Man
ALBUM    : Dead To This World
TABBED BY: h8urlife
TUNING   : B F# B E G# C# 





Intro:

C#|----------------------------------------------------------|
G#|----------------------------------------------------------|
E |----------------------------------------------------------|
B |----------------------------------------------------------| 
F#|-----0---0----1------------------3---3----4---4----4-3-1--|
B |-0-0-0-0-0--0-1--0-0-0--0-0-0--0-3-0-3--0-4-0-4--0-4-3-1--|
    . .   .    .    . . .  . . .  .   .    .   .    . . .    
         

C#|----------------------------------------------------------|
G#|----------------------------------------------------------|
E |----------------------------------------------------------|
B |----------------------------------------------------------| 
F#|-----0---0----1------------------3---3----4---4----4-3----|
B |-0-0-0-0-0--0-1--0-0-0--0-0-0--0-3-0-3--0-4-0-4--0-4-3-5*-|
    . .   .    .    . . .  . . .  .   .    .   .    . . . 




Verse:

C#|-------------------------------------------------------------|
G#|-------------------------------------------------------------|
E |-------------------------------------------------------------|
B |-----7---7----8------------------10--10---11--11-----11-10-8-| 
F#|-----5---5----6------------------8---8----9---9------9--8--6-|
B |-0-0---0----0----0-0-0-0-0-0-0-0---0----0---0----0-0---------|
    . .   .    .    . . . . . . . .   .    .   .    . .        
         



Chorus:

C#|----------------------------------------------------------|
G#|----------------------------------------------------------|
E |----------------------------------------------------------|
B |----------------------------------------------------------| 
F#|-0~----1~----1-3--0~-----1--1-1-1-1-1-1-1-1-1-1--4-3-1----|
B |-0~----1~----1-3--0~-----1--1-1-1-1-1-1-1-1-1-1--4-3-1----|
                .              . . . . . . . . . .  . . .   





Verse:

C#|-------------------------------------------------------------|
G#|-------------------------------------------------------------|
E |-------------------------------------------------------------|
B |-----7---7----8------------------10--10---11--11-----11-10-8-| 
F#|-----5---5----6------------------8---8----9---9------9--8--6-|
B |-0-0---0----0----0-0-0-0-0-0-0-0---0----0---0----0-0---------|
    . .   .    .    . . . . . . . .   .    .   .    . .  

C#|---------------------------------------------------------------|
G#|---------------------------------------------------------------|
E |---------------------------------------------------------------|
B |-----7---7----8--------------------10--10---11--11-----11-10-8-| 
F#|-----5---5----6--------------------8---8----9---9------9--8--6-|
B |-0-0---0----0----0-000-0-0-000-0-0---0----0---0----0-0---------|
    . .   .    .    . ... . . ... . .   .    .   .    . .  




Chorus:

C#|----------------------------------------------------------|
G#|----------------------------------------------------------|
E |----------------------------------------------------------|
B |----------------------------------------------------------| 
F#|-0~----1~----1-3--0~-----1--1-1-1-1-1-1-1-1-1-1--4-3-1----|
B |-0~----1~----1-3--0~-----1--1-1-1-1-1-1-1-1-1-1--4-3-1----|
                .              . . . . . . . . . .  . . .   




Breakdown:

C#|-------------------------------------------------------------------|
G#|-------------------------------------------------------------------|
E |-------------------------------------------------------------------|
B |-------------------------------------------------------------------| 
F#|-0-------4-3------3-1------1-1-1-0-------4-3------3-1------6-6-6-6-|
B |-0--0000-4/3-0000-3/1-0000-1-1-1-0--0000-4/3-0000-3/1-0000-6-6-6-6-|
       ....     ....     ....          ....     ....     ....         





Bridge:

C#|-----------------------------------------------------------|
G#|-----------------------------------------------------------|
E |-----------------------------------------------------------|
B |-----------------------------------------------------------| 
F#|-5---------------------6-5-3-6-------------3---------------|
B |-5-5555555555555555555-6-5-3-6-66666666666-3-33333333333---|
      ................... . . .   ...........   ...........              


C#|-----------------------------------------------------------|
G#|-----------------------------------------------------------|
E |-----------------------------------------------------------|
B |-----------------------------------------------------------| 
F#|-5-----------------------6-5-3-6-------------3-------------|
B |-5-5555555555555-555-555-6-5-3-6-66666666666-3-3-3-3-3-3-3-|
      ............. ... ... . . .   ...........   . . . . . .     





Under Solo:

C#|---------------------------------------------------------
G#|---------------------------------------------------------
E |---------------------------------------------------------
B |---------------------------------------------------------
F#|-0-----0---------0-------0-1-------0---------0-------0-1-
B |-0-0-0-0-0-0-0-0-0-0-0-0-0-1-0-0-0-0-0-0-0-0-0-0-0-0-0-1-
      . .   . . . .   . . .     . . .   . . . .   . . .                          


   -----------------------------------------------------------|
   -----------------------------------------------------------|
   -----------------------------------------------------------|
   -----------------------------------------------------------|
   -------0---------0-------0-1---------------5-5-5-5-3-3-3-1-|
   -0-0-0-0-0-0-0-0-0-0-0-0-0-1-0-0-0-0-0-0-0-5-5-5-5-3-3-3-1-|
    . . .   . . . .   . . .     . . . . . . .     





Outro:

C#|---------------------------------------------------------------|
G#|---------------------------------------------------------------|
E |---------------------------------------------------------------|
B |-----7---7----8--------------------10--10---11--11-----11-10-8-| 
F#|-----5---5----6--------------------8---8----9---9------9--8--6-|
B |-0-0---0----0----0-000-0-0-000-0-0---0----0---0----0-0---------|
    . .   .    .    . ... . . ... . .   .    .   .    . .  



C#|----------------------------------|-----------|
G#|----------------------------------|-----------|
E |----------------------------------|-----------|
B |-----10--10----11--11-----11-10-8-|-----------|
F#|-----8---8-----9---9------9--8--6-|-0-0-0-0-0-|
B |-0-0---0-----0---0----0-0---------|-0-0-0-0-0-|
    . .   .     .   .    . .           . . . . .   





Arma Gathas rulez!!!

http://www.myspace.com/armagathas
Добавлено: 23.04.2012
Вам также может быть интересно:
Другие материалы по этой песне:
  • Аккорды и текст

Страница создана 23.04.2012
http://primanota.ru/arma-gathas/the-lies-of-man-chords.htm
Привет, Гость.
Предлагаем пройти революционный курс по гитаре.
Подарок от PrimaNota.Ru, забирай!