PrimaNota.ru - самый крупный в мире бесплатный архив песенных текстов, аккордов, табулатур и нот


Arma Gathas - Losing Hope - таба, видео

Регистрация Запомнить меня
Войти через:  Facebook Google Twitter Vk Yandex Mail.ru

Arma Gathas - Losing Hope - таба, видео

Печатать
Просмотров: 129
Уроки эстрадного вокала в Санкт-Петербурге
-------------------------------------------------------------------------------
                          Losing Hope - Arma Gathas
-------------------------------------------------------------------------------

ARTIST   : Arma Gathas
SONG     : Losing Hope
ALBUM    : Dead To This World
TABBED BY: h8urlife
TUNING   : B F# B E G# C# 





Verse:
                           
C#|----------------------------------------------------------|
G#|----------------------------------------------------------|
E |----------------------------------------------------------|
B |------------7-------------8-------------7---------8--5--7-| 
F#|-0------1-0-5---------1-0-6---------1-0-5---------6--3--5-|
B |-0-0000-1-0----000000-1-0----000000-1-0----000000---------|
      ....        ......        ......        ......               


C#|-----------------------------------------------------------|
G#|-----------------------------------------------------------|
E |-----------------------------------------------------------|
B |------------7-------------8-------------7---------8--10-10-| 
F#|-0------1-0-5---------1-0-6---------1-0-5---------6--8--8--|
B |-0-0000-1-0----000000-1-0----000000-1-0----000000----------|
      ....        ......        ......        ......




Then:

C#|----------------------------------------------------|
G#|----------------------------------------------------|
E |----------------------------------------------------|
B |----------------------------------------------------| 
F#|-5-----6-5-3-0---------------5-----6-5-3-0----------|
B |-5-555-6-5-3-0-0-0-0-0-0-0-0-5-555-6-5-3-0-0-0-0-5*-|
      ...         . . . . . . .   ...         . . .    





Verse:
                           
C#|----------------------------------------------------------|
G#|----------------------------------------------------------|
E |----------------------------------------------------------|
B |------------7-------------8-------------7---------8--5--7-| 
F#|-0------1-0-5---------1-0-6---------1-0-5---------6--3--5-|
B |-0-0000-1-0----000000-1-0----000000-1-0----000000---------|
      ....        ......        ......        ......               


C#|-----------------------------------------------------------|
G#|-----------------------------------------------------------|
E |-----------------------------------------------------------|
B |------------7-------------8-------------7---------8--10-10-| 
F#|-0------1-0-5---------1-0-6---------1-0-5---------6--8--8--|
B |-0-0000-1-0----000000-1-0----000000-1-0----000000----------|
      ....        ......        ......        ......




Then:

C#|----------------------------------------------------|
G#|----------------------------------------------------|
E |----------------------------------------------------|
B |----------------------------------------------------| 
F#|-5-----6-5-3-0---------------5-----6-5-3-0----------|
B |-5-555-6-5-3-0-0-0-0-0-0-0-0-5-555-6-5-3-0-0-0-0-5*-|
      ...         . . . . . . .   ...         . . . 


C#|----------------------------------------------------|
G#|----------------------------------------------------|
E |----------------------------------------------------|
B |----------------------------------------------------| 
F#|-5-----6-5-3-0---------------5-----6-5-3-0~-------0-|
B |-5-555-6-5-3-0-0-0-0-0-0-0-0-5-555-6-5-3-0~-------0-|
      ...         . . . . . . .   ...        




Under Solo:

C#|----------------------------------------------------------|
G#|----------------------------------------------------------|
E |----------------------------------------------------------|
B |----------------------------------------------------------| 
F#|-2--2-2-2-6-5-3--3-3-3-3-5-6--2--2-2-2-6-5-3--3-3-3-3-5-6-|
B |-2--2-2-2-6-5-3--3-3-3-3-5-6--2--2-2-2-6-5-3--3-3-3-3-5-6-|
      

C#|----------------------------------------------------------|
G#|----------------------------------------------------------|
E |----------------------------------------------------------|
B |----------------------------------------------------------| 
F#|-2--2-2-2-6-5-3--3-3-3-3-5-6--2--2-2-2-6-5-3--3-3-3-3-3---|
B |-2--2-2-2-6-5-3--3-3-3-3-5-6--2--2-2-2-6-5-3--3-3-3-3-3---|
      



C#|----------------------------------------------------------|
G#|----------------------------------------------------------|
E |----------------------------------------------------------|
B |----------------------------------------------------------| 
F#|----------------------------------------------------------|
B |-2--2-2-2-6-5-3--3-3-3-3-5-6--2--2-2-2-6-5-3--3-3-3-3-5-6-|


C#|----------------------------------------------------------|
G#|----------------------------------------------------------|
E |----------------------------------------------------------|
B |----------------------------------------------------------| 
F#|----------------------------------------------3-3-3-3-3---|
B |-2--2-2-2-6-5-3--3-3-3-3-5-6--2--2-2-2-6-5-3--3-3-3-3-3---|  




Verse:
                           
C#|----------------------------------------------------------|
G#|----------------------------------------------------------|
E |----------------------------------------------------------|
B |------------7-------------8-------------7---------8--5--7-| 
F#|-0------1-0-5---------1-0-6---------1-0-5---------6--3--5-|
B |-0-0000-1-0----000000-1-0----000000-1-0----000000---------|
      ....        ......        ......        ......               


C#|-----------------------------------------------------------|
G#|-----------------------------------------------------------|
E |-----------------------------------------------------------|
B |------------7-------------8-------------7---------8--10-10-| 
F#|-0------1-0-5---------1-0-6---------1-0-5---------6--8--8--|
B |-0-0000-1-0----000000-1-0----000000-1-0----000000----------|
      ....        ......        ......        ......
 




C#|------------------------------------------------------------------|
G#|------------------------------------------------------------------|
E |------------------------------------------------------------------|
B |------------7-------------8-------------7---------8--5--7---------| 
F#|-0------1-0-5---------1-0-6---------1-0-5---------6--3--5--1~-----|
B |-0-0000-1-0----000000-1-0----000000-1-0----000000----------1~-----|
      ....        ......        ......        ......   



Arma Gathas rulez!!!

http://www.myspace.com/armagathas
Добавлено: 17.05.2012
Другие материалы по этой песне:
  • Аккорды и текст

Страница создана 17.05.2012
http://primanota.ru/arma-gathas/losing-hope-chords.htm
Привет, Гость.
Предлагаем пройти революционный курс по гитаре.
Подарок от PrimaNota.Ru, забирай!