PrimaNota.ru - самый крупный в мире бесплатный архив песенных текстов, аккордов, табулатур и нот


Arkona - Yarilo - бас-таба, видео

Регистрация Запомнить меня
Войти через:  Facebook Google Twitter Vk Yandex Mail.ru

Arkona - Yarilo - бас-таба, видео

Печатать
Просмотров: 394
Уроки эстрадного вокала в Санкт-Петербурге
-------------------------------------------------------------------------------
			     YARILO - Arkona
-------------------------------------------------------------------------------

Tabbed By : nilschpilsch
e-mail: 

Tuning: standard

This is the song Yarilo by Arkona. 
I tabbed it for the few that want to play this song. 
Its my first tab and I know its not 100% accurate. 
Rate and comment plz!

Intro riff A:

|-----------------|-----------------|
|-.-.-.-.-.-.-.---|--.-.-.-.-.-.----|
|-4-4-4-4-4-4-4-46|7-7-7-7-7-7-7-76-|
|-----------------|-----------------|

Intro riff B:

|-----------------|-----------------|
|---6---6---6-----|--6---6---6------|
|-4---4---4---4-46|7---7---7---7-76-|
|-----------------|-----------------|

Main riff:

|------------------|-----------------|
|*-.-.-.-.-.-.-.---|.-.-.-.-.-.-.---*|
|*-4-4-4-4-4-4-4-6-|7-7-7-7-7-7-7-6-*| 4x
|------------------|-----------------|

Verse riff:

|------------------|-----------------|
|*-------------6---|----------------*|
|*-444444422224-4R-|4444444444------*| 2x
|------------------|----------754----|

Main riff 2x

Scream riff:

|-------------------|-----------------|
|*------------------|----------------*|
|*--------------7---|----------------*| 2x
|--5555555533335-5R-|-5555555555310---|

Instrument bit (rest)

Post-instrument bit:

|------------------|-----------------|
|--.-.-.-.-.-.-.---|.-.-.-.-.-.------|
|--4-4-4-4-4-4-4-02|4-4-4-4-4-4-0-7--| 
|------------------|-----------------|

|------------------|-----------------|
|--.-.-.-.-.-.-----|.-.-.-.-.-.------|
|--4-4-4-4-4-4-422-|4-4-4-4-4-4-0-7--| 
|------------------|-----------------|

|------------------|------------------------|
|--.-.-.-.-.-.-----|.-.-.-.-.-.-------------|
|--4-4-4-4-4-4-422-|4-4-4-4-4-4-542054205420|
|------------------|------------------------|

Main riff 2x

Scream riff 3x

4th time changes a little

|-------------------|-----------------------------------------------|
|-------------------|-----------------------------6~----------------|
|---------------7---|--------------------------------4h6-6-4h6-6\---|
|--5555555533335-5R-|-5555555533335420542054205420------------------|


| /  slide up
| \  slide down
| h  hammer-on
| p  pull-off
| ~  vibrato
| +  harmonic
| x  Mute note
| .  Short note
===============================================================================
Добавлено: 19.07.2012
Другие материалы по этой песне:

Страница создана 30.04.2012
http://primanota.ru/arkona/yarilo-chords.htm
Привет, Гость.
Предлагаем пройти революционный курс по гитаре.
Подарок от PrimaNota.Ru, забирай!