PrimaNota.ru - самый крупный в мире бесплатный архив песенных текстов, аккордов, табулатур и нот


Arkhon Infaustus - M33 Constellation - таба, видео

Регистрация Запомнить меня
Войти через:  Facebook Google Twitter Vk Yandex Mail.ru

Arkhon Infaustus - M33 Constellation - таба, видео

Печатать
Просмотров: 137
-------------------------------------------------------------|
-------------------------------------------------------------|
-------------------------------------------------------------|
-99-1010-99-1212-99-1010-99-1212-99-1010-99-1212----------99-|
-77-8-8--77-1010-77-8-8--77-1010-77-8-8--77-1010-------88-77-|  X4
-------------------------------------------------77-88-------|

-----------------------------------   ----------------------------|
-----------------------------------   ----------------------------|
-----------------------------------   ----------------------------|
----------------1----------------1-   -99----99----99----10101010-|
----------------3----------------3-   ----77----77----77----------| X4
-00000000000000---00000000000000---   ----------------------------|
 ..............   ..............

------------- ------------      ------------------------------ ---|
------------- ------------      ------------------------------ ---|
------------- ------------      -7/3-9/3-10/3-13/7/3-9/3-10/3- ---|
-----------7- -7~-9-10-9~-      ------------------------------ -1-|
-2\n-------5- -5~-7-8--7~- X2   -5/1-7/1-8-/1-11/5/1-7/1-8-/1- -3-|
-0\n-3-4-3--- ------------      ------------------------------ ---|

------------------------------------------------------|
------------------------------------------------------|
-7/3-9/3-10/3-13/7-15/13-12-15\13-12/13-12/13-10/9/7~-|
------------------------------------------------------| THIS MAY BE WRONG
-5/1-7/1-8-/1-11/5-13/11-10-13\11-10/11-10/11-8-/7/5~-|
------------------------------------------------------|

--------------------------------------------|
--------------------------------------------|
--------------------------------------------|
-2-6-7777-2-5-6-77-1010-88-2-6-7777-5-3-6-5-| X2
-0-4------0-3-4------------0-4------3-1-4-3-|

-------------------------------------|
-------------------------------------|
-------------------------------------|
---------5-----------------5---------|
---------7-5/6-3/5---------7-3/5-6/5-|
-0-0-0-0---3/4-1/3-0-0-0-0---1/3-4/3-|
 . . . .           . . . .


gtr1   -13p10-13p10-13p10-13p10-14p11-14p11-14p11-14p11-| X4
       -------------------------------------------------|
       -------------------------------------------------|
       ---------5-----------------5---------------------|
       ---------7-5/6-3/5---------7-3/5-6/5-------------|
gtr2   -0-0-0-0---3/4-1/3-0-0-0-0---1/3-4/3-------------| x2
        . . . .           . . . .

----------------------------------------                -----------------|
----------------------------------------                -----------------|
----------------------------------------         gtr1   -141414-15-14-15-| X3
-9-----10-----12-13-9-------------------                -----------------|
-7-----8------10-11-7-----66-55-1010-99- X4             -2\n-22\n-2\n----|
---000----000---------000-44-33-88---77-         gtr2   -0\n-00\n-0\n----|
   ...    ...

----------------------------|
----------------------------|
----------------------------|
-99----99----99----10101010-|
----77----77----77----------| X4
----------------------------|

          -----------------      --------------------|
          -----------------      --------------------|
          -----------------      --------------------|
          -----------------      --------------------|
   gtr1   -----------------      -10-8-10-8-9-8-5-4/-|
          -9p7-9p7-8p7-4-3- X16  --------------------| X20


          -------------------------------------------|
          -------------------------------------------|
          -------------------------------------------|
          -------------------------------------------|
          -2-10-6-7-10-6-----------------------------| X4
   gtr2   -0-8--4-5-8--4-----------------------------|


------------------------------------------|
------------------------------------------|
------------------------------------------|
-/11111111-10101010-----------------------|
--------------------4444-8888-55-77777777-|
------------------------------------------|

----------------------------------------------|
----------------------------------------------|
----------------------------------------------|
----------------------------------------------|
-10101010-13131313-11111111-14141414-13131313-|
----------------------------------------------|

------------------------------------------------------------------------------|
------------------------------------------------------------------------------|
------------------------------------------------------------------------------|
-1111------1010------1111------1414------1515------1111------1010101010101010-|
------1313------1212------1313------1313------1313------1313------------------|
------------------------------------------------------------------------------|
Play all the 3 parts above in order for 2 times


-------------------------------------|
-------------------------------------|
-------------------------------------|
---------5-----------------5---------|
---------7-5/6-3/5---------7-3/5-6/5-|
-0-0-0-0---3/4-1/3-0-0-0-0---1/3-4/3-|
 . . . .           . . . .


gtr1   -13p10-13p10-13p10-13p10-14p11-14p11-14p11-14p11-| X4
       -------------------------------------------------|
       -------------------------------------------------|
       ---------5-----------------5---------------------|
       ---------7-5/6-3/5---------7-3/5-6/5-------------|
gtr2   -0-0-0-0---3/4-1/3-0-0-0-0---1/3-4/3-------------| x2
        . . . .           . . . .


------------------------------------------------|
------------------------------------------------|
------------------------------------------------|
---------5-5-------8-8-8-/11-5-5----------------|
-2-------7-7-------101010/13-7-7----------3-6-5-| X2
-0-00-33-----77-33---------------66-55-77-1-4-3-|


----------------------------------------|
----------------------------------------|
----------------------------------------|
-9-----10-----12-13-9-------------------|
-7-----8------10-11-7-----66-55-1010-99-| X4
---000----000---------000-44-33-88---77-|
   ...    ...


---------------------------------------------------------  ------|
---------------------------------------------------------  ------|
---------------------------------------------------------  ------|
-9------10----------9------------9------9------10------9-  ------|
-7------8-----------7----------3-7------7------8-------7-  -33-2-|
---0000----00000000---00000000-1---0000---0000----0000---  -11-0-|

end
Добавлено: 08.06.2012
Другие материалы по этой песне:
  • Аккорды и текст

Страница создана 08.06.2012
http://primanota.ru/arkhon-infaustus/m33-constellation-chords.htm
Привет, Гость.
Предлагаем пройти революционный курс по гитаре.
Подарок от PrimaNota.Ru, забирай!