PrimaNota.ru - самый крупный в мире бесплатный архив песенных текстов, аккордов, табулатур и нот


Arkells - The Choir - таба, видео

Регистрация Запомнить меня
Войти через:  Facebook Google Twitter Vk Yandex Mail.ru

Arkells - The Choir - таба, видео

Печатать
Просмотров: 192
----------------------------------------------------------------------------
                             The Choir - Arkells
----------------------------------------------------------------------------
Tabbed by:
Email:

Tuning:
Intro
Guitar 1
e|--9-12-9-7--5-9-5--5-9-5--------------------------------|
B|-----------------5------5-2---4-------------------------|
G|---------------------------2-2--------------------------|
D|--------------------------------------------------------|
A|--------------------------------------------------------|
E|--------------------------------------------------------|
Guitar 2
e|----12--------------------------------------------------|
B|--10--10-9--7-10-7---7-10-7-----------------------------|
G|------------------9---------9--6---8--------------------|
D|--------------------------------7-7---------------------|
A|--------------------------------------------------------|
E|--------------------------------------------------------|
Prechorus
e|-9-----9------------------------------------------------|
B|-10----10-----------------------------------------------|
G|-11-11-11-11-9------------------------------------------|
D|----11----11-9------------------------------------------|
A|----9-----9--7------------------------------------------|
E|--------------------------------------------------------|
Chorus
Guitar 1
e|-9--9---------------------------------------------------|
B|-10-10--------------------------------------------------|
G|-11-11-11-6-4-69--4-6-7-9-------------------------------|
D|-------11-6-4-69--4-6-7-9-------------------------------|
A|-------9--4-2-47--2-4-5-7-------------------------------|
E|--------------------------------------------------------|

e|--------------------------------------------------------|
B|--------------------------------------------------------|
G|--11-11-6-44-66-77-44---6-44-66-77-99-------------------|
D|----------------------77--------------------------------|
A|--------------------------------------------------------|
E|--------------------------------------------------------|

| /  slide up
| \  slide down
| h  hammer-on
| p  pull-off
| ~  vibrato
| +  harmonic
| x  Mute note
===========================================================================
Добавлено: 18.06.2012
Другие материалы по этой песне:

Страница создана 12.03.2012
http://primanota.ru/arkells/the-choir-chords.htm
Привет, Гость.
Предлагаем пройти революционный курс по гитаре.
Подарок от PrimaNota.Ru, забирай!