PrimaNota.ru - самый крупный в мире бесплатный архив песенных текстов, аккордов, табулатур и нот


Arkells - Coffee - аккорды и текст, видео

Регистрация Запомнить меня
Войти через:  Facebook Google Twitter Vk Yandex Mail.ru

Arkells - Coffee - аккорды и текст, видео

Печатать
Просмотров: 102
Coffee
Arkells
Tabbed By: Mike

Standard Tuning, Capo 1 (all chords relative to capo)

  Am  Am7  C   C7    F  Em/C
e--0---0---0---0-----0--------|
B--1---1---1---0-----1---0----|
G--2---0---0---0-----2---0----|
D--2---2---2---2-----3---2----|
A--0---0---3---3-----3---3----|
E--------------------1---0----|


Intro:
         bass            |
e------------------------|-----0-------------------------|
B------------------------|-----5-------------------------|
G------------------------|-----4------------5-5---7-7----|
D------------------------|-----5-------------------------|
A------------------------|-------------------------------|
E--5---5-3-5---5-3-5-...-|-----5-------------------------|


Main riff

   Am / Am7        C7 / C
e--0---0-0-0-----------------|
B--1---1-1-1-------0---1-1---|
G--2---2-0-2-------0---0-0---|
D--2---2-2-2-------2---2-2---|
A--0---0-0-0-------3---3-3---|
E----------------------------|

VERSE 1:
Am                       C7 C
No no really, this one's on me
                     G
I'll let you get the next time
              Dm
We go out for coffee
      Am
'Cause I wanna know
               C7 C
All about your history
          G
Open my eyes
                  Dm
We can solve this mystery


PRE-CHORUS:
      F
Cause I've got all the clues
          Am      C7     F
And I can't piece it together

Now I'm talking to you
         Dm            F
So can ya clear up the record

2nd guitar riff:
repeat as needed
e------0---0------0---0----|
B--------3----------3------|
G---2--------2----------2--|
D--------------------------|
A--------------------------|
E--------------------------|


CHORUS
       C
Do you hear him?
       F
Do you feel him?
       Em/C
Do you see him?
       Am                 G
Do you see him when you're dreaming?
        C
Does he hit you?
        F
Does he hold you?
        Em/C
Does he listen?
           Am             G
Or cut you off when you're speaking?
       F       G                Am
'Cause I-I-I-I-I wanna know the reason


VERSE 2:
Am                                 C7  C
You're telling everyone he is your best friend
           G
And you're handing out flyers
              Dm
Flyers on the weekends
       Am
You're making up your mind
                                 C7 C
You say everything is blinded by history
       G
So you stay at home writing
               Dm
Unauthorized biographies


PRE-CHORUS: (same as last)
      F
Cause I've got all the clues
          Am      C7     F
And I can't keep it together

Now I'm talking to you
         Dm            F
So can ya clear up the record


Play Chorus again (same as last)


Bridge (basically the same as the pre-chorus):

F        Am C7 F         Am    G   
  C


little bass lick after the bridge:
e-------------------------------------------------|
B-------------------------------------------------|
G-------------------------------------------------|
D-------------------------------------------------|
A---3----5/7\5-----7/8\7----8/10/12-12--5-5-3-----|
E-------------------------------------------------|

C
I-I-I-I-I wanna know the reason
I-I-I-I-I wanna know the reason

CHORUS:
       C
Do you hear him?
       F
Do you feel him?
       Em/C
Do you see him?
       Am                 G
Do you see him when you're dreaming?
        C
Does he hit you?
        F
Does he hold you?
        Em/C
Does he listen?
           Am             G
Or cut you off when you're speaking?
C                     F
I wanna hear what you say
                     Em/C
But you keep walking away
      Am        G
Everytime I say hey!
       C
Do you hear him?
       F
Do you feel him?
       Em/C
Do you see him?
       Am                 G
Do you see him when you're dreaming?
C       F                Em/C     Am      G
I-I-I-I-I wanna know the reason
C       F                Em/C     Am      G
I-I-I-I-I wanna know the reason

... fade out
Добавлено: 20.09.2013
Другие материалы по этой песне:
  • Аккорды и текст

Страница создана 20.09.2013
http://primanota.ru/arkells/coffee-chords.htm
Привет, Гость.
Предлагаем пройти революционный курс по гитаре.
Подарок от PrimaNota.Ru, забирай!