PrimaNota.ru - самый крупный в мире бесплатный архив песенных текстов, аккордов, табулатур и нот


Arkaea - Years In The Darkness - таба, видео

Регистрация Запомнить меня
Войти через:  Facebook Google Twitter Vk Yandex Mail.ru

Arkaea - Years In The Darkness - таба, видео

Печатать
Просмотров: 173
----------------------------------------------------------------------------
                  Years in the Darkness - Arkaea
----------------------------------------------------------------------------

Artist:    Arkaea
Song:      Years in the Darkness
Album:     Years in the Darkness
Tabbed by: meshuggener667@hotmail.com
Tunning:7-string standard tuning

a simple song to play,great though!
listen to the original song for speed,rythms e.t.c.
ENJOY!








0:01
e|--------------------------------------------------------------------------|
B|--------------------------------------------------------------------------|
G|--------------------------------------------------------------------------|
D|-111111111111111111111111--121212121212121212121212--9999999999999--------|
A|--------------------------------------------------------------------------|
E|-9-9-9-9-9-9-9-9-9-9-9-9---101010101010101010101010--7777777777777--------|
B|--------------------------------------------------------------------------|

e|--------------------------------------------------------------------------|
B|--------------------------------------------------------------------------|
G|--------------------------------------------------------------------------|
D|-121212121212121212121212-------------------------------------------------|
A|--------------------------------------------------------------------------|
E|-101010101010101010101010-------------------------------------------------|
B|--------------------------------------------------------------------------|


0:10 
e|--------------------------------------------------------------------------|
B|--------------------------------------------------------------------------|
G|--------------------------------------------------------------------------|
D|--------------------------------------------------------------------------|
A|--------------------------------------------------------------------------|
E|--------------------------------------------------------------------------|
B|-120000-12-00-12-0-12-00-13121215-120000-12-00-12-0-12-00-13121215-12-0000|

e|--------------------------------------------------------------------------|
B|--------------------------------------------------------------------------|
G|--------------------------------------------------------------------------|
D|--------------------------------------------------------------------------|
A|--------------------------------------------------------------------------|
E|----------------------------------------------------------14-15-17--------|
B|-12-000-12-00-12-0-12-00-13121215-120000-12-00-12-0-12-00-12-13-15--------|


0:30
e|--------------------------------------------------------------------------|
B|--------------------------------------------------------------------------|
G|--------------------------------------------------------------------------|
D|--------------------------------------------------------------------------|
A|--------------------------------------------------------------------------|
E|-15------------------------------14------------------------------15-------|
B|---000012-00-12-0-12-00-13121215---000012-00-12-0-12-00-13121215---000012-|

e|--------------------------------------------------------------------------|
B|--------------------------------------------------------------------------|
G|--------------------------------------------------------------------------|
D|--------------------------------------------------------------------------|
A|--------------------------------------------------------------------------|
E|------------------------14---------------------141517---------------------|
B|-00-12-0-12-00-13121215---000012-00-12-0-12-00-121315---------------------|



 CHORUS 1
0:50

e|----------0-----------0----------0--------0---------------0-----------0---|
B|----------0-----------0----------0--------0---------------0-----------0---|
G|----------0-----------0----------0--------0---------------0-----------0---|
D|----------0-----------0----------0--------0---------------0-----------0---|
A|-1010101010101010-55555555-1077777777-77777777---1010101010101010-55555555|
E|-1010101010101010-55555555-1077777777-77777777---1010101010101010-55555555|
B|-8-8-8-8-8-8-8-8--33333333-8-55555555-55555555---8-8-8-8-8-8-8-8--33333333|

e|-------0--------0---------------------------------------------------------|
B|-------0--------0---------------------------------------------------------|
G|-------0--------0---------------------------------------------------------|
D|-------0--------0---------------------------------------------------------|
A|-1077777777-88888888--3---------------------------------------------------|
E|-1077777777-88888888--3---------------------------------------------------|
B|-8-55555555-66666666--1---------------------------------------------------|


1:13
e|--------------------------------------------------------------------------|
B|--------------------------------------------------------------------------|
G|--------------------------------------------------------------------------|
D|--------------------------------------------------------------------------|
A|--------------------------------------------------------------------------|
E|--------------------------------------------------------------------------|
B|-120000-12-00-12-0-12-00-13121215-120000-12-00-12-0-12-00-13121215-12-0000|

e|--------------------------------------------------------------------------|
B|--------------------------------------------------------------------------|
G|--------------------------------------------------------------------------|
D|--------------------------------------------------------------------------|
A|--------------------------------------------------------------------------|
E|----------------------------------------------------------14-15-17--------|
B|-12-000-12-00-12-0-12-00-13121215-120000-12-00-12-0-12-00-12-13-15--------|


1:23
e|--------------------------------------------------------------------------|
B|--------------------------------------------------------------------------|
G|--------------------------------------------------------------------------|
D|--------------------------------------------------------------------------|
A|--------------------------------------------------------------------------|
E|-15------------------------------14------------------------------15-------|
B|---000012-00-12-0-12-00-13121215---000012-00-12-0-12-00-13121215---000012-|

e|--------------------------------------------------------------------------|
B|--------------------------------------------------------------------------|
G|--------------------------------------------------------------------------|
D|--------------------------------------------------------------------------|
A|--------------------------------------------------------------------------|
E|------------------------14---------------------141517---------------------|
B|-00-12-0-12-00-13121215---000012-00-12-0-12-00-121315---------------------|




 CHORUS 2
1:43

e|--------0-------------0----------0--------0---------------0-----------0---|
B|--------0-------------0----------0--------0---------------0-----------0---|
G|--------0-------------0----------0--------0---------------0-----------0---|
D|--------0-------------0----------0--------0---------------0-----------0---|
A|-1010101010101010-55555555-1077777777-77777777---1010101010101010-55555555|
E|-1010101010101010-55555555-1077777777-77777777---1010101010101010-55555555|
B|-8-8-8-8-8-8-8-8--33333333-8-55555555-55555555---8-8-8-8-8-8-8-8--33333333|

e|-------0--------0---------------------------------------------------------|
B|-------0--------0---------------------------------------------------------|
G|-------0--------0---------------------------------------------------------|
D|-------0--------0---------------------------------------------------------|
A|-1077777777-77777777------------------------------------------------------|
E|-1077777777-77777777------------------------------------------------------|
B|-8-55555555-55555555------------------------------------------------------|

e|----------0-----------0---------0--------------------------------0--------|
B|----------0-----------0---------0--------------------------------0--------|
G|----------0-----------0---------0--------------------------------0--------|
D|----------0-----------0---------0--------------------------------0--------|
A|-1010101010101010-55555555-1077777777---------------------1010101010101010|
E|-1010101010101010-55555555-1077777777---------------------1010101010101010|
B|-8-8-8-8-8-8-8-8--33333333-8-55555555--55655655658556556--8-8-8-8-8-8-8-8-|

e|-----0---------0---------0------------------------------------------------|
B|-----0---------0---------0------------------------------------------------|
G|-----0---------0---------0------------------------------------------------|
D|-----0---------0---------0------------------------------------------------|
A|-55555555-1077777777-88888888--3--3--3--3---------------------------------|
E|-55555555-1077777777-88888888--3--3--3--3---------------------------------|
B|-33333333-8-55555555-66666666--1--1--1--1---------------------------------|


2:26

e|--------------------------------------------------------------------------|
B|--------------------------------------------------------------------------|
G|--------------------------------------------------------------------------|
D|-111111111111111111111111--121212121212121212121212--9999999999999--------|
A|--------------------------------------------------------------------------|
E|-9-9-9-9-9-9-9-9-9-9-9-9---101010101010101010101010--7777777777777--------|
B|--------------------------------------------------------------------------|

e|--------------------------------------------------------------------------|
B|--------------------------------------------------------------------------|
G|--------------------------------------------------------------------------|
D|-121212121212121212121212-------------------------------------------------|
A|--------------------------------------------------------------------------|
E|-101010101010101010101010-------------------------------------------------|
B|--------------------------------------------------------------------------|

e|--------------------------------------------------------------------------|
B|--------------------------------------------------------------------------|
G|--------------------------------------------------------------------------|
D|-111111111111111111111111--121212121212121212121212--9999999999999--------|
A|--------------------------------------------------------------------------|
E|-9-9-9-9-9-9-9-9-9-9-9-9---101010101010101010101010--7777777777777--------|
B|--------------------------------------------------------------------------|

e|--------------------------------------------------------------------------|
B|--------------------------------------------------------------------------|
G|--------------------------------------------------------------------------|
D|-121212121212121212121212121212121212-------------------------------------|
A|--------------------------------------------------------------------------|
E|-101010101010101010101010101010101010-------------------------------------|
B|--------------------------------------------------------------------------|


2:46
e|--------------------------------------------------------------------------|
B|--------------------------------------------------------------------------|
G|--------------------------------------------------------------------------|
D|-1111111111----1212121212----99999----1212121212--------------------------|
A|-1111111111444-1212121212555-99999222-1212121212555-----------------------|
E|-9-9-9-9-9-444-1010101010555-77777222-1010101010555-----------------------|
B|-----------222-----------333------000-----------333-----------------------|

e|--------------------------------------------------------------------------|
B|--------------------------------------------------------------------------|
G|--------------------------------------------------------------------------|
D|-1111111111----1212121212----99999----1212121212--------------------------|
A|-1111111111444-1212121212555-99999222-1212121212555-----------------------|
E|-9-9-9-9-9-444-1010101010555-77777222-1010101010555-----------------------|
B|-----------222-----------333------000-----------333-----------------------|



3:07
e|--------------------------------------------------------------------------|
B|--------------------------------------------------------------------------|
G|--------------------------------------------------------------------------|
D|--------------------------------------------------------------------------|
A|--------------------------------------------------------------------------|
E|--------------------------------------------------------------------------|
B|-120000-12-00-12-0-12-00-13121215-120000-12-00-12-0-12-00-13121215-12-0000|

e|--------------------------------------------------------------------------|
B|--------------------------------------------------------------------------|
G|--------------------------------------------------------------------------|
D|--------------------------------------------------------------------------|
A|--------------------------------------------------------------------------|
E|----------------------------------------------------------14-15-17--------|
B|-12-000-12-00-12-0-12-00-13121215-120000-12-00-12-0-12-00-12-13-15--------|



 CHORUS 3
3:17

e|--------0-------------0----------0--------0---------------0-----------0---|
B|--------0-------------0----------0--------0---------------0-----------0---|
G|--------0-------------0----------0--------0---------------0-----------0---|
D|--------0-------------0----------0--------0---------------0-----------0---|
A|-1010101010101010-55555555-1077777777-77777777---1010101010101010-55555555|
E|-1010101010101010-55555555-1077777777-77777777---1010101010101010-55555555|
B|-8-8-8-8-8-8-8-8--33333333-8-55555555-55555555---8-8-8-8-8-8-8-8--33333333|

e|-------0--------0---------------------------------------------------------|
B|-------0--------0---------------------------------------------------------|
G|-------0--------0---------------------------------------------------------|
D|-------0--------0---------------------------------------------------------|
A|-1077777777-77777777------------------------------------------------------|
E|-1077777777-77777777------------------------------------------------------|
B|-8-55555555-55555555------------------------------------------------------|

e|----------0-----------0---------0--------------------------------0--------|
B|----------0-----------0---------0--------------------------------0--------|
G|----------0-----------0---------0--------------------------------0--------|
D|----------0-----------0---------0--------------------------------0--------|
A|-1010101010101010-55555555-1077777777---------------------1010101010101010|
E|-1010101010101010-55555555-1077777777---------------------1010101010101010|
B|-8-8-8-8-8-8-8-8--33333333-8-55555555--55655655658556556--8-8-8-8-8-8-8-8-|

e|-----0---------0---------0------------------------------------------------|
B|-----0---------0---------0------------------------------------------------|
G|-----0---------0---------0------------------------------------------------|
D|-----0---------0---------0------------------------------------------------|
A|-55555555-1077777777-88888888--3~--7~-------------------------------------|
E|-55555555-1077777777-88888888--3~--7~-------------------------------------|
B|-33333333-8-55555555-66666666--1~--5~-------------------------------------|





END

************************************

| /   slide up
| \   slide down
| h   hammer-on
| p   pull-off
| ~   vibrato
| +   harmonic
| x   Mute note
| b   Bend
| pb  Pre-bend
| br  Bend release
| pbr Pre-bend release
| brb Bend release bend

************************************
Добавлено: 17.06.2012
Другие материалы по этой песне:
  • Аккорды и текст

Страница создана 17.06.2012
http://primanota.ru/arkaea/years-in-the-darkness-chords.htm
Привет, Гость.
Предлагаем пройти революционный курс по гитаре.
Подарок от PrimaNota.Ru, забирай!