PrimaNota.ru - самый крупный в мире бесплатный архив песенных текстов, аккордов, табулатур и нот


Arkaea - Locust - таба, видео

Регистрация Запомнить меня
Войти через:  Facebook Google Twitter Vk Yandex Mail.ru

Arkaea - Locust - таба, видео

Печатать
Просмотров: 239
Artist:    Arkaea
Song:      Locust
Album:     Years in the Darkness
Tabbed by: MangeuDePoutine@hotmail.com
Tunning:   Dropped B

1 = C#     4 = B
2 = G#     5 = F#
3 = E      6 = B


0:01 - 0:17

1:--------------------------------------------|\
2:--------------------------------------------| \      X2
3:--------------------------------------------|  \
4:--------------------------------------------|   \
5:-----------------------------------------1-4|    \                                               
6:-1-0--1-1-1-0--1-1-1-1-0--1-1-1-0--1-1-0----|     \   
PM   .        .          .        .      .           \  
1:------------------------------------------|        /  
2:------------------------------------------|       /   Bend-release pull-off every 1 (C note)
3:------------------------------------------|      /    on the B string. This is played fastly
4:-----------------------------------3--6--3|     /     so some notes can be missing...
5:-----------------------------------3--6--3|    /
6:-1-0--1-1-1-0--1-1-1-1-0--1-1-1-0--3--6--3|   /
PM   .        .          .        .

0:18 - 0:37
  
1:---------------------------------------|\        1:----|\
2:---------------------------------------| \  X4   2:----| \
3:---------------------------------------|  \      3:----|  \ The fourth times play this instead
4:---------------------------------------|  /      4:-5~-|  / of the 4 (D# note) on the B string.
5:-0-1-2-1-0--1-2-1-2--0-1-2-1--0-1-2-3-4| /       5:-4~-| /  Let ring...
6:-0-1-2-1-0--1-2-1-2--0-1-2-1--0-1-2-3-4|/        6:----|/
PM .       .           .        .

0:37 - 0:54

1:--------------------------------------------
2:--------------------------------------------     
3:-------------------------------------------- 
4:--------------------------------------------  
5:-----------------------------------------1-4                                                     
6:-1-0--1-1-1-0--1-1-1-1-0--1-1-1-0--1-1-0----
PM   .        .          .        .      .
1:----------------------------------------------
2:----------------------------------------------
3:----------------------------------------------
4:----------------------------------------------
5:---------------------------------------3/5\3--
6:-1-0--1-1-1-0--1-1-1-1-0--1-1-1--3-5-6-------6
PM   .        .          .         
1:--------------------------------------------
2:--------------------------------------------     
3:-------------------------------------------- 
4:--------------------------------------------  
5:-----------------------------------------1-4                                                     
6:-1-0--1-1-1-0--1-1-1-1-0--1-1-1-0--1-1-0----
PM   .        .          .        .      .

1:------------------------------------------|\
2:------------------------------------------| \  
3:------------------------------------------|  \    Bend-release pull off
4:-----------------------------------3--6--3|  /    every 1 (C note) on the B string.
5:-----------------------------------3--6--3| /   
6:-1-0--1-1-1-0--1-1-1-1-0--1-1-1-0--3--6--3|/
PM   .        .          .        .

0:54 - 1:03

1:------------------------------------------------------|\
2:------------------------------------------------------| \  X2
3:------------------------------------------------------|  \ 
4:---------------------3--6-----------------------6--3--|  / The bass drum is going insane for
5:12---11---12---11----3--6--12---11---12---11----6--3--| /  this riff...
6:--0-0--0-0--0-0--0-0-3--6----0-0--0-0--0-0--0-0-6--3--|/
PM  . .  . .  . .  . .         . .  . .  . .  . .

1:03 - 1:04

1:---|\
2:---| \
3:---|  \
4:---|  / Pick very fast, as fast as the double bass drum... (I think there's 16 notes in total).
5:---| /
6:-13|/
PM .

1:05 - 1:21

1:-------------|\
2:-------------| \  X2
3:-5-----------|  \
4:-X--6--3--6--|  / Find the strumming.
5:-3--6--3--6--| /
6:----6--3--6--|/

1:21 - 1:25

1:-----------------------------------------------------|\
2:-----------------------------------------------------| \
3:-----------------------------------------------3-----|  \ Not sure about the ending of that
4:-10----10-10-10----10-10-10-10----10-10--6--1--3--3--|  / riff, that sound something like that.
5:-10----10-10-10----10-10-10-10----10-10--6--1--1--3--| /
6:-10-0--10-10-10-0--10-10-10-10-0--10-10--6--1-----3--|/
PM    .           .              .

1:26 - 1:42

1:--------------------------------------------
2:--------------------------------------------     
3:-------------------------------------------- 
4:--------------------------------------------  
5:-----------------------------------------1-4                                                     
6:-1-0--1-1-1-0--1-1-1-1-0--1-1-1-0--1-1-0----
PM   .        .          .        .      .
1:----------------------------------------------
2:----------------------------------------------
3:----------------------------------------------
4:----------------------------------------------
5:---------------------------------------3/5\3--
6:-1-0--1-1-1-0--1-1-1-1-0--1-1-1--3-5-6-------6
PM   .        .          .         
1:--------------------------------------------
2:--------------------------------------------     
3:-------------------------------------------- 
4:--------------------------------------------  
5:-----------------------------------------1-4                                                     
6:-1-0--1-1-1-0--1-1-1-1-0--1-1-1-0--1-1-0----
PM   .        .          .        .      .

1:------------------------------------------|\
2:------------------------------------------| \  
3:------------------------------------------|  \    Bend-release pull off
4:-----------------------------------3--6--3|  /    every 1 (C note) on the B string.
5:-----------------------------------3--6--3| /   
6:-1-0--1-1-1-0--1-1-1-1-0--1-1-1-0--3--6--3|/
PM   .        .          .        .

1:43 - 1:59

1:---------------------------------------|\        
2:---------------------------------------| \  X4   
3:---------------------------------------|  \      
4:---------------------------------------|  /      
5:-0-1-2-1-0--1-2-1-2--0-1-2-1--0-1-2-3-4| /       
6:-0-1-2-1-0--1-2-1-2--0-1-2-1--0-1-2-3-4|/        
PM .       .           .        .

2:00 - 2:09

1:------------------------------------------------------|\
2:------------------------------------------------------| \  X2
3:------------------------------------------------------|  \ 
4:---------------------3--6-----------------------6--3--|  / The bass drum is going insane for
5:12---11---12---11----3--6--12---11---12---11----6--3--| /  this riff...
6:--0-0--0-0--0-0--0-0-3--6----0-0--0-0--0-0--0-0-6--3--|/
PM  . .  . .  . .  . .         . .  . .  . .  . .

2:09 - 2:10

1:---|\
2:---| \
3:---|  \
4:---|  / Pick very fast, as fast as the double bass drum... (I think there's 16 notes in total).
5:---| /
6:-13|/
PM .

2:10 - 2:44

1:-------------|\
2:-------------| \  X4
3:-5-----------|  \
4:-X--6--3--6--|  / Find the strumming.
5:-3--6--3--6--| /
6:----6--3--6--|/

2:44 - 2:52

1:---------------------------------------|\
2:---------------------------------------| \   X4
3:-5-5-5-6-5-5-5-6-5-5-5-6-5-5-5-6-6-5---|  \
4:-X-X-X-X-X-X-X-X-X-X-X-X-X-X-X-X-X-X---|  /  Something like this, hard to hear...
5:-3-3-3-4-3-3-3-4-3-3-3-4-3-3-3-4-4-3---| /
6:---------------------------------------|/

2:53 - 3:09

1:----------------------------------------------------------------|\
2:----------------------------------------------------------------| \  X4
3:-5--------5---------------------5-------------------------------|  \
4:-5--6--5--5--6--5---------------5--6--5-------------------------|  / Note in palm mute are played
5:-3--6--5--3--6--5---------------3--6--5-------------------------| /  very fast, they are hard to
6:----6--5-----6--5--6-6-6-5-5-5-----6--5--6-6-6-5-5-5-6-6-6-5-5-5|/   hear...
PM                   . . . . . .           . . . . . . . . . . . .

3:10 - 4:18

1:-------------|\
2:-------------| \  X8
3:-5-----------|  \
4:-X--6--3--6--|  / Find the strumming.
5:-3--6--3--6--| /  The strumming altern.
6:----6--3--6--|/   At the 4th time skip some 6 (F note) and do dead note instead (X)

4:18 - 4:22

1:-----------------------------------------------------|\
2:-----------------------------------------------------| \
3:-----------------------------------------------3-----|  \ Not sure about the ending of that
4:-10----10-10-10----10-10-10-10----10-10--6--1--3--3--|  / riff, that sound something like that.
5:-10----10-10-10----10-10-10-10----10-10--6--1--1--3--| /
6:-10-0--10-10-10-0--10-10-10-10-0--10-10--6--1-----3--|/
PM    .           .              . 

4:22 - 4:26

1:---------------------------------------|\
2:---------------------------------------| \
3:---------------------------------------|  \ End of the song.
4:-10----10-10-10---X-X-X-X-X-X-X-X-10\--|  /
5:-10----10-10-10---X-X-X-X-X-X-X-X-10\--| /
6:-10-0--10-10-10-0-X-X-X-X-X-X-X-X-10\--|/

~  = Let ring
/  = Slide up
\  = Slide down
X  = Dead Note


That it i've work hard on it...

If there's a few thing not clear just PM me or send me a E-Mail : MangeuDePoutine@hotmail.com

Hope you like it!

Please comment and rates!


MangeuDePoutine@Hotmail.com             
Добавлено: 09.04.2012
Вам также может быть интересно:
Другие материалы по этой песне:

Страница создана 02.04.2012
http://primanota.ru/arkaea/locust-chords.htm
Привет, Гость.
Предлагаем пройти революционный курс по гитаре.
Подарок от PrimaNota.Ru, забирай!