PrimaNota.ru - самый крупный в мире бесплатный архив песенных текстов, аккордов, табулатур и нот


Arkaea - Beneath The Shades Of Grey - таба, видео

Регистрация Запомнить меня
Войти через:  Facebook Google Twitter Vk Yandex Mail.ru

Arkaea - Beneath The Shades Of Grey - таба, видео

Печатать
Просмотров: 203
-----------------------------------------------------------------------------
                             Beneath the Shades Of Grey - Arkaea
-----------------------------------------------------------------------------
Tabbed by:jtom#11
Email:jtom2@rmusd.net


Tuning:DRop C
[INTRO]
(0:00)-(0:22)
       *this is where you start again
E|-----|----------------------------------------------
B|-----|----------------------------------------------
G|-----|----------------------------------------------
D|-----|----------------------------------------------
A|-111-|------------22222-------33333-------2-1-------
E|-----|22222222222-------22222-------22222-----------
        ...........       .....       .....
       
(0:22)-(0:44)
[VERSE1]
          *this is where you start again
E|---|----|----------------------------------|---------------------------|
B|---|----|----------------------------------|---------------------------|
G|---|----|----------------------------------|---------------------------|
D|-3-|0-2-|0-0-2-0-4-0-2-0-5-0-2-0-4-3-0-2---|-0-0-2-0-2-----------------|
A|-1-|0-2-|0-0-2-0-2-0-2-0-3-0-2-0-2-1-0-2---|-0-0-2-0-2-----------------|
E|---|0-2-|0-0-2-0---0-2-0---0-2-0-----0-2---|-0-0-2-0-2-2-2-2-2--222-222|
      .    . .   .   .   .   .   .     .       . .   .   . . . .  ... ...


      
(0:44)-(1:07) 
       *this is where you start again
E|-----|------------------------------------------|----------------------|
B|-----|------------------------------------------|----------------------|
G|-----|------------------------------------------|----------------------|
D|-----|------------------------------------------|----------------------|
A|-111-|------------22222-------33333-------2-1---|----------------------|
E|-----|22222222222-------22222-------22222-------|--333333333--333-333--|
        ...........       .....       .....          .........  ... ...



(1:07)-(1:32)            play this 
(CHORUS)               the last time.                            
E|------------------|-----------------|
B|------------------|-----------------|
G|------------------|-----------------|
D|--7----2----4-----|--7----2----6----|
A|--5----2----4-----|--5----2----6----|
E|-------2----4-----|-------2----6----|


(1:32)-(1:35)
E|-----------------------------------|
B|-----------------------------------|
G|-----------------------------------|
D|-----------------------------------|
A|-----------------------------------|
E|--222222--222222--222-555-555------|
    ......  ......  ... ... ...


(1:35)-(1:57)
[VERSE2]
          *this is where you start again
E|---|----|----------------------------------|---------------------------|
B|---|----|----------------------------------|---------------------------|
G|---|----|----------------------------------|---------------------------|
D|-3-|0-2-|0-0-2-0-4-0-2-0-5-0-2-0-4-3-0-2---|-0-0-2-0-2-----------------|
A|-1-|0-2-|0-0-2-0-2-0-2-0-3-0-2-0-2-1-0-2---|-0-0-2-0-2-----------------|
E|---|0-2-|0-0-2-0---0-2-0---0-2-0-----0-2---|-0-0-2-0-2-2-2-2-2--222-222|
      .    . .   .   .   .   .   .     .       . .   .   . . . .  ... ...


(1:57)-(2:19) 
       *this is where you start again
E|-----|------------------------------------------|----------------------|
B|-----|------------------------------------------|----------------------|
G|-----|------------------------------------------|----------------------|
D|-----|------------------------------------------|----------------------|
A|-111-|------------22222-------33333-------2-1---|----------------------|
E|-----|22222222222-------22222-------22222-------|--333333333--333-333--|
        ...........       .....       .....          .........  ... ...
     

(2:19)-(2:44)            play this 
(CHORUS)               the last time.
E|------------------|-----------------|
B|------------------|-----------------|
G|------------------|-----------------|
D|--7----2----4-----|--7----2----6----|
A|--5----2----4-----|--5----2----6----|
E|-------2----4-----|-------2----6----|


(2:44)-(2:50)
[BRIDGE]
E|----------------------------------------------|
B|----------------------------------------------|
G|----------------------------------------------|
D|----------------------------------------------|
A|----------------------------------------------|
E|--333333-2--333333-2--333333222-3--555-555----|
    ...... .  ...... .  ......... .  ... ...

(2:50)-(2:55)
E|-------------------------------------------|-----|
B|-------------------------------------------|-----|
G|-------------------------------------------|-----|
D|--333333-2--333333-2--333333222-3--555-555-|--5--|
A|--333333-2--333333-2--333333222-3--555-555-|--5--|
E|--333333-2--333333-2--333333222-3--555-555-|--5--|
    ...... .  ...... .  ......... .  ... ...    .

(2:55)-(3:19)
E|------------------------------------|
B|------------------------------------|
G|------------------------------------|
D|--333333-2--333333-2--3-2-3--5--5-5-|
A|--333333-2--333333-2--3-2-3--5--5-5-|
E|--333333-2--333333-2--3-2-3--5--5-5-|
    ......    ......    

(3:19)-(3:39)
E|--------------------------------------|
B|--------------------------------------|
G|--------------------------------------|
D|--7~----4~----5~----2~----4~----5~----|
A|--7~----4~----5~----2~----4~----5~----|
E|--7~----4~----5~----2~----4~----5~----|


(3:39)-(4:02)
E|------------------------------------|
B|------------------------------------|
G|------------------------------------|
D|--333333-2--333333-2--3-2-3--5--5-5-|
A|--333333-2--333333-2--3-2-3--5--5-5-|
E|--333333-2--333333-2--3-2-3--5--5-5-|
    ......    ......    

(4:02)-(4:53)            play this 
(CHORUS)               the last time.                            
E|------------------|-----------------|
B|------------------|-----------------|
G|------------------|-----------------|
D|--7----2----4-----|--7----2----6----|
A|--5----2----4-----|--5----2----6----|
E|-------2----4-----|-------2----6----|


(4:53)-(END OF SONG) 
       *this is where you start again
E|-----|------------------------------------------|----------------------|
B|-----|------------------------------------------|----------------------|
G|-----|------------------------------------------|----------------------|
D|-----|------------------------------------------|----------------------|
A|-111-|------------22222-------33333-------2-1---|----------------------|
E|-----|22222222222-------22222-------22222-------|--333333333--333-333--|
        ...........       .....       .....          .........  ... ...
Добавлено: 01.07.2012
Другие материалы по этой песне:

Страница создана 01.07.2012
http://primanota.ru/arkaea/beneath-the-shades-of-grey-chords.htm
Привет, Гость.
Предлагаем пройти революционный курс по гитаре.
Подарок от PrimaNota.Ru, забирай!