PrimaNota.ru - самый крупный в мире бесплатный архив песенных текстов, аккордов, табулатур и нот


Ark - Prayer For The Weekend - бас-таба, видео

Регистрация Запомнить меня
Войти через:  Facebook Google Twitter Vk Yandex Mail.ru

Ark - Prayer For The Weekend - бас-таба, видео

Печатать
Просмотров: 205
Уроки эстрадного вокала в Санкт-Петербурге
Song Title:Prayer For The Weekend
Band:The Ark
Album:Prayer For The Weekend
Tabbed By Ludvig Wikström
Tuning:Standard

Intro
G|------------------|
D|------------------|
A|7--5---5-77-5---5-| x4
E|-----7--------7---|


|------------------|------------------|------------------|------------------|
|------------------|5--3---3-55-3---3-|------------------|5--3---3-99-7---7-|
|7--5---5-77-5---5-|-----5--------5---|3--1---1-33-1---1-|-----5--------9---|
|-----7--------7---|------------------|-----3--------1---|------------------|

|------------------|------------------|------------------|------------------|
|------------------|5--3---3-55-3---3-|------------------|5--3---3-55-3---3-|
|7--5---5-77-5---5-|-----5--------5---|3--1---1-33-1---1-|-----5--------5---|
|-----7--------7---|------------------|-----3--------1---|------------------|


|------------------|
|9--7---7-99-7---7-|
|-----9--------9---| x4
|------------------| 


Verse
|------------------|------------------|------------------|------------------|
|------------------|5-5---------4-5---|------------------|5-5-----2p3p2-----|
|7-7---------5-7-5-|----------------5-|3-3---------2-3-5-|--------------2-5-|
|------------------|------------------|------------------|------------------|

|------------------|------------------|------------------|------------------|
|------------------|5-5---------4-5---|------------------|5-5-----2p3p2-----|
|7-7---------5-7-5-|----------------5-|3-3---------2-3-5-|--------------2-5-|
|------------------|------------------|------------------|------------------|

|------------------|------------------|------------------|------------------|
|------------------|5-5---------4-5---|--2-4-5---45---45-|--2-4-5---45---45-|
|7-7---------5-7-5-|----------------5-|3-----------------|3-----------------|
|------------------|------------------|------------------|------------------|

|------------------|------------------|------------------|-----------|
|------------------|5-5---------4-5---|--2-4-5---45---45-|----2-4-5.-|
|7-7---------5-7-5-|----------------5-|3-----------------|3----------|
|------------------|------------------|------------------|-----------|

Chorus (x4)
|------------------|------------------|------------------|------------------|
|------------------|5--3---3-55-3---3-|------------------|5--3---3-99-7---7-|
|7--5---5-77-5---5-|-----5--------5---|3--1---1-33-1---1-|-----5--------9---|
|-----7--------7---|------------------|-----3--------1---|------------------|

Verse (Just like the first verse)

Chorus (x3)

Then play
|------------------|------------------|------------------|------------------|
|------------------|5--3---3-55-3---3-|------------------|5--3---3-55-3---3-|
|7--5---5-77-5---5-|-----5--------5---|3--1---1-33-1---1-|-----5--------5---|
|-----7--------7---|------------------|-----3--------1---|------------------|

|------------------|------------------|------------------|------------------|
|9--7---7-99-7---7-|9--7---7-99-7---7-|9--7---7-99-7---7-|9--7---7-11119---9|
|-----9--------9---|-----9--------9---|-----9--------9---|-----9---------9--|
|------------------|------------------|------------------|------------------|

Play the following tab 4 times
|------------------|------------------|------------------|---------66-4---4-|
|------------------|7--5---5-77-5---5-|------------------|7--5---5------6---|
|9--7---7-99-7---7-|-----7--------7---|5--3---3-55-3---3-|-----7------------|
|-----9--------7---|------------------|-----5--------5---|------------------|

And then...
|------------------|------------------|------------------|--------5/6-9-6---|
|------------------|7--5---5-77-5---5-|------------------|7--5---5-------9-7|
|9--7---7-99-7---7-|-----7--------7---|5--3---3-55-3---3-|-----7------------|
|-----9--------7---|------------------|-----5--------5---|------------------|

|------------------|------------------|------------------|---------66-4---4-|
|------------------|7--5---5-77-5---5-|------------------|7--5---5------6---|
|9--7---7-99-7---7-|-----7--------7---|5--3---3-55-3---3-|-----7------------|
|-----9--------7---|------------------|-----5--------5---|------------------|

|------------------|------------------|------------------|---------66-4---4-|
|------------------|7--5---5-77-5---5-|------------------|7--5---5------6---|
|9--7---7-99-7---7-|-----7--------7---|5--3---3-55-3---3-|-----7------------|
|-----9--------7---|------------------|-----5--------5---|------------------|

End like this...
|------------------|------------------|------------------|--------5/6-9-6---|
|------------------|7--5---5-77-5---5-|------------------|7--5---5-------9-7|
|9--7---7-99-7---7-|-----7--------7---|5--3---3-55-3---3-|-----7------------|
|-----9--------7---|------------------|-----5--------5---|------------------|

Добавлено: 01.07.2012
Другие материалы по этой песне:

Страница создана 06.05.2012
http://primanota.ru/ark/prayer-for-the-weekend-chords.htm
Привет, Гость.
Предлагаем пройти революционный курс по гитаре.
Подарок от PrimaNota.Ru, забирай!