PrimaNota.ru - самый крупный в мире бесплатный архив песенных текстов, аккордов, табулатур и нот


Arise And Ruin - Forever Damned - таба, видео

Регистрация Запомнить меня
Войти через:  Facebook Google Twitter Vk Yandex Mail.ru

Arise And Ruin - Forever Damned - таба, видео

Печатать
Просмотров: 154
Уроки эстрадного вокала в Санкт-Петербурге
Forever Damned
Arise And Ruin
Night Storms Hailfire

Tabbed by : Pete_KC
Tunning : Drop B

I figured out the song in about 5 minutes so if you find any 
mistakes, let me know.

|------------------|------------------|
|------------------|------------------|
|------------------|------------------|
|------------------|------------------|
|------------------|------------------|
|---0---0---0---0--|--0---0---0---0---|

Main Riff (5X)
||-------------------------|-------------------------|
||-------------------------|-------------------------|
||-------------------------|-------------------------|
||-------------------------|-------------------------|
||-------------------------|-------------------------|
||---0-0-3---0--1---4---1--|--0-0-3---0--1---4---1---|
     - -                      - -
|-------------------------|----------------------||
|-------------------------|----------------------||
|-------------------------|----------------------||
|-------------------------|----------------------||
|-------------------------|---0000000000000000---||
|---0-0-3---0--1---4---1--|---0000000000000000---||
    - -                       ----------------
Chorus (4X) (00:33)
||---------------------|---------------------|
||---------------------|---------------------|
||---------------------|---------------------|
||---------------------|---------------------|
||---------------------|---------------------|
||---5555555555555555--|--4444444444444444---|

|-------------------------|-------------------------||
|-------------------------|-------------------------||
|-------------------------|-------------------------||
|-------------------------|-------------------------||
|-------------------------|-------------------------||
|---1---1---4--1---1---4--|--1---1---4--1---1---4---||

(00:57)
|------------------|
|------------------|
|------------------|
|------------------|
|------------------|
|---0---0---0---0--|

Main Riff
||-------------------------|-------------------------|
||-------------------------|-------------------------|
||-------------------------|-------------------------|
||-------------------------|-------------------------|
||-------------------------|-------------------------|
||---0-0-3---0--1---4---1--|--0-0-3---0--1---4---1---|
     - -                      - -
|-------------------------|----------------------|
|-------------------------|----------------------|
|-------------------------|----------------------|
|-------------------------|----------------------|
|-------------------------|---0000000000000000---|
|---0-0-3---0--1---4---1--|---0000000000000000---|
    - -                       ----------------

|-------------------------|-------------------------|
|-------------------------|-------------------------|
|-------------------------|-------------------------|
|-------------------------|-------------------------|
|-------------------------|-------------------------|
|---0-0-3---0--1---4---1--|--0-0-3---0--1---4---1---|
    - -                      - - 
|-------------------------|----------------------||
|-------------------------|----------------------||
|-------------------------|----------------------||
|-------------------------|--0-------------------||
|-------------------------|--0-------------------||
|---0-0-3---0--1---4---1--|--0-------------------||
    - -

Main Riff (01:11)(Tempo is a bit slower here)
||-------------------------|-------------------------|
||-------------------------|-------------------------|
||-------------------------|-------------------------|
||-------------------------|-------------------------|
||-------------------------|-------------------------|
||---0-0-3---0--1---4---1--|--0-0-3---0--1---4---1---|
     - -                      - -
|-------------------------|--------------------|
|-------------------------|--------------------|
|-------------------------|--------------------|
|-------------------------|--------------------|
|-------------------------|--000-000-000-000---|
|---0-0-3---0--1---4---1--|--000-000-000-000---|
    - -                      --- --- --- ---
|-------------------------|-------------------------|
|-------------------------|-------------------------|
|-------------------------|-------------------------|
|-------------------------|-------------------------|
|-------3---0--1---4---1--|------3---0--1---4---1---|
|---0-0-3---0--1---4---1--|--0-0-3---0--1---4---1---|
    - -                      - -
|-------------------------|---------------------||
|-------------------------|---------------------||
|-------------------------|---------------------||
|-------------------------|---------------------||
|-------3---0--1---4---1--|--0000000000000000---||
|---0-0-3---0--1---4---1--|--0000000000000000---||
    - -                      ----------------

Repeat Chorus (4X)

Breakdown A (4X)(01:50)
||--------------|-----------------|-------------|
||--------------|-----------------|-------------|
||--------------|-----------------|-------------|
||--------------|-----------------|-------------|
||---1-0---0----|--1-0---0-0-0-0--|--1-0---0----|
||---1-0---0----|--1-0---0-0-0-0--|--1-0---0----|
     -             -     - - - -     -
|------------------------------||
|------------------------------||
|------------------------------||
|------------------------------||
|---1-0-0--3-0-0--4-0-0--1-3---||
|---1-0-0--3-0-0--4-0-0--1-3---||
    - - -  - - -  - - -  - -

Outro (9X)(02:17)
||------------------------------||
||------------------------------||
||------------------------------||
||------------------------------||
||---1-0-0--3-0-0--4-0-0--1-3---||
||---1-0-0--3-0-0--4-0-0--1-3---||
     - - -  - - -  - - -  - -


p  pull off
h  hammer on
-  Palm Mute
Добавлено: 08.04.2012
Вам также может быть интересно:
Другие материалы по этой песне:
  • Аккорды и текст

Страница создана 08.04.2012
http://primanota.ru/arise-and-ruin/forever-damned-chords.htm
Привет, Гость.
Предлагаем пройти революционный курс по гитаре.
Подарок от PrimaNota.Ru, забирай!