PrimaNota.ru - самый крупный в мире бесплатный архив песенных текстов, аккордов, табулатур и нот


Arik Einstein - Tze Meze - таба

Регистрация Запомнить меня
Войти через:  Facebook Google Twitter Vk Yandex Mail.ru

Arik Einstein - Tze Meze - таба

Печатать
Просмотров: 73
Arik Einstein  -  Tze Meze  ("leave it be")


Voice/Guitar tab:


e|--5---3-5-0--|--1-3-1-0-----0----|
B|-------------|------------3---3--|
G|-------------|-------------------|   X2
D|-------------|-------------------|
A|-------------|-------------------|
E|-------------|-------------------|


e|--5-7-5--|--5-7-5--|--8-8---8-7---5-4---5-7-5--|
B|---------|---------|---------------------------|
G|---------|---------|---------------------------|
D|---------|---------|---------------------------|
A|---------|---------|---------------------------|
E|---------|---------|---------------------------|


e|--0-5-8--|--0-1--|--5-3-5-3---0--|
B|---------|-------|----------3----|
G|---------|-------|---------------|   X2
D|---------|-------|---------------|  
A|---------|-------|---------------|
E|---------|-------|---------------|
Добавлено: 09.12.2015
Вам также может быть интересно:
Другие материалы по этой песне:
  • Аккорды и текст

Страница создана 09.12.2015
http://primanota.ru/arik-einstein/tze-meze-chords.htm
Привет, Гость.
Предлагаем пройти революционный курс по гитаре.
Подарок от PrimaNota.Ru, забирай!