PrimaNota.ru - самый крупный в мире бесплатный архив песенных текстов, аккордов, табулатур и нот


Arik Einstein - Shir Hashayara - таба, видео

Регистрация Запомнить меня
Войти через:  Facebook Google Twitter Vk Yandex Mail.ru

Arik Einstein - Shir Hashayara - таба, видео

Печатать
Просмотров: 112
Arik Einstein  -   Shir HaShayara

  (the convoy song)


Their song was based on a Greek melody, it is super cool to play

Intro:

e|----------------|------------|----------------------------5h6-5--|
B|--7-8-10--------|--7-8-10----|--10-8-7---7------------7-8--------|
G|---------7h8-7--|---------7--|---------8---8-7-5--7-8------------|
D|----------------|------------|-----------------------------------|
A|----------------|------------|-----------------------------------|
E|----------------|------------|-----------------------------------|


e|----------------|------------|---------------------------|
B|--7-8-10--------|--7-8-10----|--10-8-7---7---------------|
G|---------7h8-7--|---------7--|---------8---8-7-5-7--5-7--|
D|----------------|------------|---------------------------|
A|----------------|------------|---------------------------|
E|----------------|------------|---------------------------|

Verse:

e|----2-3-5-5--|--8-6-5-3-5-2--|
B|--3----------|---------------|
G|-------------|---------------|
D|-------------|---------------|
A|-------------|---------------|
E|-------------|---------------|


e|----2-3-5-6-8-10---8-6-5-3-5-2--|
B|--3-----------------------------|
G|--------------------------------|
D|--------------------------------|
A|--------------------------------|
E|--------------------------------|

e|----2-3-5-2--3-2-----------------2-3-5-3----3-2-----2----|
B|--3--------------4-3-4-1---1-3-4----------------4-3---3--|
G|---------------------------------------------------------|
D|---------------------------------------------------------|  X2
A|---------------------------------------------------------|
E|---------------------------------------------------------|

e|----------------|------------|------------------/10-8-7-5--(7)--|
B|--7-8-10--------|--7-8-10----|--10-8-7---7----------------------|
G|---------7h8-7--|---------7--|---------8---8-7------------------|
D|----------------|------------|----------------------------------|
A|----------------|------------|----------------------------------|
E|----------------|------------|----------------------------------|


Chorus:


e|--7-8-7----7-8-10--|--7-8-7-5--7-8-5--|
B|--------10---------|------------------|
G|-------------------|------------------|
D|-------------------|------------------|
A|-------------------|------------------|
E|-------------------|------------------|

e|--5-6--5-6--5-6-5-3--|--2-3--2-3--2-3-2----|
B|---------------------|------------------4--|
G|---------------------|---------------------|
D|---------------------|---------------------|
A|---------------------|---------------------|
E|---------------------|---------------------|

e|----------5-6-8-6--|--5-----------5-5--|
B|------7-8----------|----8-7---7-8------|
G|--7-8--------------|--------8----------|
D|-------------------|-------------------|
A|-------------------|-------------------|
E|-------------------|-------------------|

e|--5-6--5-6--5-6-5-3--|--2-3--2-3--2-3-2----|
B|---------------------|------------------4--|
G|---------------------|---------------------|
D|---------------------|---------------------|
A|---------------------|---------------------|
E|---------------------|---------------------|

e|----------5-6-8-6--|--5----------------|
B|------7-8----------|----8-7---7--------|
G|--7-8--------------|--------8---8-7-7--|
D|-------------------|-------------------|
A|-------------------|-------------------|
E|-------------------|-------------------|
Добавлено: 09.12.2015
Другие материалы по этой песне:
  • Аккорды и текст

Страница создана 09.12.2015
http://primanota.ru/arik-einstein/shir-hashayara-chords.htm
Привет, Гость.
Предлагаем пройти революционный курс по гитаре.
Подарок от PrimaNota.Ru, забирай!