PrimaNota.ru - самый крупный в мире бесплатный архив песенных текстов, аккордов, табулатур и нот


Arik Einstein - Me And You - Ani Veata - таба, видео

Регистрация Запомнить меня
Войти через:  Facebook Google Twitter Vk Yandex Mail.ru

Arik Einstein - Me And You - Ani Veata - таба, видео

Печатать
Просмотров: 208
Arik Einstein   -    Me and You / "Ani Ve'Ata"

~ Voice Melody tabbed for guitar ~


Tab by Avi Yaacov
Israel, 2014


Intro/Connecting riff:
e|--0---2-0-3--|--8-7-5-3-2-0----|--0---5-3-2-0--|
B|-------------|--------------3--|---------------|
G|-------------|-----------------|---------------|  X2
D|-------------|-----------------|---------------|   second time
A|-------------|-----------------|---------------|    play last 
E|-------------|-----------------|---------------|      bar twice


Main stuff:

e|--3-3-2-0-5-----5-3-2----0-2-0--|
B|-----------------------4--------|
G|--------------------------------|
D|--------------------------------|
A|--------------------------------|
E|--------------------------------|


e|--3-3-2-0-5-----5-3-2----0-2-3--|
B|-----------------------4--------|
G|--------------------------------|
D|--------------------------------|
A|--------------------------------|
E|--------------------------------|

e|--7-7-5-3-5------7-8-7---7-5-3-2--|----0-2-3-0---|
B|------------3---------------------|--4-----------|
G|----------------------------------|--------------|
D|----------------------------------|--------------|
A|----------------------------------|--------------|
E|----------------------------------|--------------|

e|--3-3-2-0-5-----5-3-2----0-2-0--|   |--0---5-3-2-0--|
B|-----------------------4--------|   |---------------|
G|--------------------------------|   |---------------|
D|--------------------------------|   |-----X2--------|
A|--------------------------------|   |-----bar-------|
E|--------------------------------|   |---------------|
Добавлено: 09.08.2015
Другие материалы по этой песне:
  • Аккорды и текст

Страница создана 09.08.2015
http://primanota.ru/arik-einstein/me-and-you-ani-veata-chords.htm
Привет, Гость.
Предлагаем пройти революционный курс по гитаре.
Подарок от PrimaNota.Ru, забирай!