PrimaNota.ru - самый крупный в мире бесплатный архив песенных текстов, аккордов, табулатур и нот


Arik Einstein - Haor Bakatze Light At The End - таба

Регистрация Запомнить меня
Войти через:  Facebook Google Twitter Vk Yandex Mail.ru

Arik Einstein - Haor Bakatze Light At The End - таба

Печатать
Просмотров: 96
Arik Einstein - Ha'Or Bakatze (Light at the end)

Electric guitar played by Yehuda Poliker


Tab by Avi Yaacov
Israel 01-2015



Intro lead:

e|-------------------------------------------------|
B|-------------------------------------------------|
G|-------------------------------------------------|
D|--------------0-2------0-2-0h2p0-----------------|
A|--0-------2-3--------------------3------2-3-2-0--|
E|-------------------------------------------------|



Repeating in verses:
e|------------------|
B|------------------|
G|------------------|
D|------------0-----|
A|--0-----2-3-------|
E|------------------|


e|-----------------------|----------------------------------|
B|-----------------------|----------------------------------|
D|-----------------------|----------------------------------|
G|--------0-2-3-/7--/2---|--------0-2-3/7vv--5-3-5---3-2----|
A|--0-2-3----------------|--0-2-3------------------------3--|
E|-----------------------|----------------------------------|





Verse Chords:

Dm / Am      X3
Am / Dm 
Am / Dm / G / Am



Chorus chords:

C / D / Am / Am
C / D / G / Em
Am / D / G / Em

Am / Dm / Am
Am / Dm / G / Am




~  Solo at 2:48  ~

e|-------------------|--------------------------------------12-13-12-----|
B|--15b17--15-13-15--|--13-12-13-12h13p12----------12-13-15----------15--|
G|-------------------|--------------------14----14-----------------------|
D|-------------------|-----------------------14--------------------------|
A|-------------------|---------------------------------------------------|
E|-------------------|---------------------------------------------------|

e|-------------------|-----------------------------------------|
B|--15b17--15-13-15--|--17-18b20vvv----17-18--15-17--13-15b17--|
G|-------------------|-----------------------------------------|
D|-------------------|-----------------------------------------|
A|-------------------|-----------------------------------------|
E|-------------------|-----------------------------------------|

e|-------------------------------------------------------15-------|
B|--13-12-13-12h13p12----------13-13h15vv----13-15-15b17----15vv--|
G|--------------------14----14------------------------------------|
D|-----------------------14---------------------------------------|
A|----------------------------------------------------------------|
E|----------------------------------------------------------------|

e|-------------15h17-17vv-------------------|
B|--13h15-15/17-----------20bb^^^^^^^^------|
G|--------------------------bend up + hold--|
D|------------------------------------------|
A|------------------------------------------|
E|------------------------------------------|


Post solo:
e|--12---------------14-------------12------------------------------------|
B|-----13---------------15-------------13------------12-13-15-15vv-13-12--|
G|--------12---------------14vv-----------14------14----------------------|
D|-----------14------------------------------14vv-------------------------|
A|------------------------------------------------------------------------|
E|------------------------------------------------------------------------|

e|--12---------------14-------------15--------------------------------|
B|-----13---------------15-------------15-12--------------------------|
G|--------12---------------14vv--------------12-----------12-14^^vv---|
D|-----------14----------------------------------------14-------------|
A|--------------------------------------------------------------------|
E|--------------------------------------------------------------------|




Ending at 4:03

e|--------------------------------------------------------------------------|
B|----------------12-13-15-17vvvv---15-17-15-13vvvv-----12-13-12h13p12------|
G|--13-13h14vv---------------------------------------------------------14vv-|
D|--------------------------------------------------------------------------|
A|--------------------------------------------------------------------------|
E|--------------------------------------------------------------------------|
Добавлено: 09.08.2015
Другие материалы по этой песне:
  • Аккорды и текст

Страница создана 09.08.2015
http://primanota.ru/arik-einstein/haor-bakatze-light-at-end-chords.htm
Привет, Гость.
Предлагаем пройти революционный курс по гитаре.
Подарок от PrimaNota.Ru, забирай!