PrimaNota.ru - самый крупный в мире бесплатный архив песенных текстов, аккордов, табулатур и нот


Ariel Soria - Zamba Para Hacer Lea - таба, видео

Регистрация Запомнить меня
Войти через:  Facebook Google Twitter Vk Yandex Mail.ru

Ariel Soria - Zamba Para Hacer Lea - таба, видео

Печатать
Просмотров: 77
                            Zamba Para Hacer Leña                               


                                                                     Ariel Soria
Guitarra 1



      E.  S E  Q    E     E.  S E  Q    E     E.  S E  Q    E   
E||--------------------|-------------------|-------------------|
B||---0---3-1--3----4--|--1---5-3--5----5--|--3---6-5--6----5--|
G||*--1---4-2--4----3--|--2---5-4--5----5--|--4---7-5--7----5--|
D||*-------------------|-------------------|-------------------|
A||--------------------|-------------------|-------------------|
E||--------------------|-------------------|-------------------|


  Q    Q    Q       E.   S E   E  E  E     E.  S E  E  E  E   
-----------------|----------------------|--------------------|
--4----5---------|--6---10-8--10--8--6--|--5---8-6--8--6--5--|
--3----5---------|--7---10-9--10--9--7--|--5---9-7--9--7--5--|
-----------------|----------------------|--------------------|
-----------------|----------------------|--------------------|
-----------------|----------------------|--------------------|


  E  E  S E.  E  E     Q.     Q.        E.  S E  Q    E     Q    Q    Q     
--------------------|----------------|-----------1-------|--0----1---------|
--3--3--1-0---5--3--|--1-------------|--3-----3-------3--|--1----3---------|
--4--4--2-1---5--4--|--2-------------|------2------------|-----------------|
--------------------|----------------|--0----------------|-----------------|
--------------------|----------------|-------------------|-----------------|
--------------------|----------------|-------------------|-----------------|


  E.  S E  Q    E     Q    Q    Q       E.  S Q.     E     E.  S Q    Q     
-----------0-------|-----------------|------------------|------------------|
--1-----1-------1--|--3----5---------|--3---1-0------0--|--5---3-5---------|
------0---------2--|--4----5---------|------------------|--5---4-5---------|
-------------------|-----------------|--0---------------|------------------|
--3----------------|-----------------|------------------|------------------|
-------------------|-----------------|------------------|------------------|


  E.  S Q.     E     Q.     Q.        E.  S E  Q    E     Q    Q    Q     
------------------|----------------|--1---0-1--3----1--|--0----1---------|
--3---1-3------0--|--1-------------|--3---1-3--5----3--|--1----3---------|
------------------|--2-------------|-------------------|-----------------|
--0---------------|----------------|-------------------|-----------------|
------------------|----------------|-------------------|-----------------|
------------------|----------------|-------------------|-----------------|


  E.  S E  Q    E     Q    Q    Q       E  E  E  Q    E     E.  E  S Q    E   
-------------------|-----------------|-------------------|-------------------|
--5---3-5--6----5--|--3----5---------|--3--3--1--0----1--|--5---5--3-5----5--|
--5---4-5--7----5--|--4----5---------|-------------------|-------------------|
-------------------|-----------------|-------------------|-------------------|
-------------------|-----------------|-------------------|-------------------|
-------------------|-----------------|-------------------|-------------------|


  E.  E  S E  E  E     Q.     Q.        E  E  E  Q    E     E  E  E  Q    E   
--------------------|----------------|-------------------|-------------------|
--3---3--1-3--1--0--|--1-------------|--3--3--1--0----1--|--5--5--3--5----5--|
--------------------|----------------|--4--4--2--1----2--|--5--5--4--5----5--|
--------------------|----------------|-------------------|-------------------|
--------------------|----------------|-------------------|-------------------|
--------------------|----------------|-------------------|-------------------|


  E  E  E  E  E  E     Q.     Q.        E.  S Q.     E     E.  S Q    Q     
--------------------|----------------|--------0---------|------------------|
--3--3--1--3--1--0--|--1-------------|--1---3--------3--|--1---0-1---------|
--4--4--2--4--2--1--|--2-------------|------------------|--2---1-2---------|
--------------------|----------------|------------------|------------------|
--------------------|----------------|--0---------------|------------------|
--------------------|----------------|------------------|------------------|


  E.  S Q    Q       Q    Q    Q       E.  S Q    Q       Q    Q    Q     
--1---0-----------|--0---------0----|--1---0-----------|-----------------|
--3---1-3---------|-------3---------|--------3---------|--1----3----5----|
--------4---------|-----------------|------------------|--2----4----5----|
------------------|-----------------|--0---------------|-----------------|
------------------|--3--------------|------------------|-----------------|
------------------|-----------------|------------------|-----------------|


  E  E  E  Q    E     Q.     Q.        E.  S E  Q.        E.  S E  Q.      
-------------------|----------------|------------------|-----------0------|
--3--3--1--0----0--|--1-------------|-----------1------|--------0---------|
--4--4--2--1----1--|--2-------------|--------2--2------|------1-----------|
-------------------|----------------|------2-----------|------------------|
-------------------|----------------|--0---------------|------------------|
-------------------|----------------|------------------|--0---------------|


  E.  S Q.     E     Q.     Q.                             
--1---0-----------|-----------------||---------|---------||
--3---1-3------0--|--1--------------||---------|---------||
--------4------1--|--2-------------*||---------|---------||
------------------|----------------*||---------|---------||
------------------|-----------------||---------|---------||
------------------|-----------------||---------|---------||




Duration Legend
---------------
W - whole
H - half
Q - quarter
E - 8th
S - 16th
T - 32nd
X - 64th
. - note dotted
|-n-|  - n-tuplets


Tablature Legend
----------------
L - tied note
x - dead note
g - grace note
(n) - ghost note
> - accentuded note
NH - natural harmonic
AH - artificial harmonic
TH - tapped harmonic
SH - semi harmonic
PH - pitch harmonic
h - hammer on
p - pull off
b - bend
br - bendRelease
pb - preBend
pbr - preBendRelease
brb - bendReleaseBend
\n/ - tremolo bar dip
\n - tremolo bar dive
-/n - tremolo bar Release up
/n\ - tremolo bar inverted dip
/n - tremolo bar return
-\n - tremolo bar Release down
S - shift slide
s - legato slide
/ -  slide into from below or out of upwards
\ -  slide into from above or out of downwards
~ - vibrato
W - wide vibrato
tr - trill
TP - tremolo picking
T - tapping
S - slap
P - pop
< - fade in
^ - brush up
v - brush down
Добавлено: 16.06.2013
Другие материалы по этой песне:
  • Аккорды и текст

Страница создана 16.06.2013
http://primanota.ru/ariel-soria/zamba-para-hacer-lea-chords.htm
Привет, Гость.
Предлагаем пройти революционный курс по гитаре.
Подарок от PrimaNota.Ru, забирай!