PrimaNota.ru - самый крупный в мире бесплатный архив песенных текстов, аккордов, табулатур и нот


Ariel Pinks Haunted Graffiti - Round And Round - таба, видео

Регистрация Запомнить меня
Войти через:  Facebook Google Twitter Vk Yandex Mail.ru

Ariel Pinks Haunted Graffiti - Round And Round - таба, видео

Печатать
Просмотров: 74
Уроки эстрадного вокала в Санкт-Петербурге
-------------------------------------------------------------------------------
               Round and Round - Ariel Pink's Haunted Graffiti
-------------------------------------------------------------------------------

Tuning: Standard

Found this on the internet

Intro:

F#m               C#m C#m C#m
Nah Nah Nah Nah
F#m               C#m C#m C#m
Nah Nah Nah Nah

Part 1:

F#m

e|---------------------------------------------------------------------------|
B|---------------------------------------------------------------------------|
G|---------------------------------------------------------------------------|
D|---------------------------------------------------------------------------|
A|--9-11-7-9-11-7------------------------------------------------------------|
E|----------------9----------------------------------------------------------|

It's always the same, as always
Said and tongue tied
It's got a memory and refrain.

I'm afraid, you're afraid.
And we die and we live and we're born again
Turn me inside out
What can I say...

Merry go 'round
We go up and around we go

Breakdown, break it down

Part 2:

e|--7--------10--------------------------------------------------------------|
B|---------------10----------------------------------------------------------|
G|---------------------------------------------------------------------------|
D|---------------------------------------------------------------------------|
A|---------------------------------------------------------------------------|
E|---------------------------------------------------------------------------|

D   C#m        C          F#m
You play air guitar for a band
    D         C#m        C          F#m
And I, I will break eardrums in the back
     D           C#m          C    F#m
And I'll back you up, as your frontman

Part 3:

e|----------7-7-7-9----------------------------------------------------------|
B|--9-9-7-9-9-9-9-9----------------------------------------------------------|
G|--8-8-8-8-8-8-8-8----------------------------------------------------------|
D|---------------------------------------------------------------------------|
A|---------------------------------------------------------------------------|
E|---------------------------------------------------------------------------|

"Hello? Oh, hi."

part 4:

B
Now that sounds right frontman write the
Songs that say
"I like that!"

      E        A       E                  B
Hold on, I'm calling, calling back to the ball
           E          A    E
And we'll dazzle them all, hold on

Part 4:

F#m

e|---------------------------------------------------------------------------|
B|---------------------------------------------------------------------------|
G|---------------------------------------------------------------------------|
D|---------------------------------------------------------------------------|
A|--9-11-7-9-11-7------------------------------------------------------------|
E|----------------9----------------------------------------------------------|

Pick up the phone. And I want to go, and I want to go home now.

Merry go 'round
We go up and around we go now.

Part 5:

e|---------------------------------------------------------------------------|
B|--9-9-7-7-5-5-------5--9-7-------------------------------------------------|
G|----8---6---4-6-6-4-6----8-------------------------------------------------|
D|----------------6----------------------------------------------------------|
A|---------------------------------------------------------------------------|
E|---------------------------------------------------------------------------|

E B A C#m C#m B     E B A C#m     C#m B
          Lady      come on in,  set me free.
E B A C#m C#m
Lady come on in

Part 5:

e|--16-17-14-16-12-14-9-11---------------------------------------------------|
B|-------------------------12------------------------------------------------|
G|---------------------------------------------------------------------------|
D|---------------------------------------------------------------------------|
A|---------------------------------------------------------------------------|
E|---------------------------------------------------------------------------|

E           C#m          B
Sentimental heart break, everything is my fault.

      E        A       E                  B
Hold on, I'm calling, calling back to the ball
           E          A    E
And we'll dazzle them all, hold on
Добавлено: 05.12.2015
Другие материалы по этой песне:
  • Аккорды и текст

Страница создана 05.12.2015
http://primanota.ru/ariel-pinks-haunted-graffiti/round-and-round-chords.htm
Привет, Гость.
Предлагаем пройти революционный курс по гитаре.
Подарок от PrimaNota.Ru, забирай!