PrimaNota.ru - самый крупный в мире бесплатный архив песенных текстов, аккордов, табулатур и нот


Ariel Pinks Haunted Graffiti - Life In La - таба, бас-таба, видео

Регистрация Запомнить меня
Войти через:  Facebook Google Twitter Vk Yandex Mail.ru

Ariel Pinks Haunted Graffiti - Life In La - таба, бас-таба, видео

Печатать
Просмотров: 172
ARTIST: Ariel Pink's Haunted Graffiti
SONG: "Life in L.A."
ALBUM: Worn Copy (2003/2005)



TUNING: half-step flat (Eb Ab Db Gb Bb Eb), probably mastered with slowed tape speed



GUITAR: Ariel Pink
EFFECTS: Phase Shifter



INTRO/INTERLUDE:
    F#       Ebm            F#       Ebm            Am       Ebm            Am       Ebm
Eb|-3--------0--------------3--------0--------------5--------0--------------5--------0-------------|
Bb|-3--------0--------------3--------0--------------5--------0--------------5--------0-------------|
Gb|-4--------0--------------4--------0--------------5--------0--------------5--------0-------------|
Db|-5--------2--------------5--------2--------------7--------2--------------7--------2-------------|
Ab|------------------------------------------------------------------------------------------------|
Eb|------------------------------------------------------------------------------------------------|



VERSE:
    F#                      F#                      Am       Ebm            Am       Ebm
Eb|-3--3--3--3--3--3--3--3--3--3--3--3--3--3--3--3--5--5--5--5--5--5--5--5--5--5--5--5--5--5--5--5-|
Bb|-3--3--3--3--3--3--3--3--3--3--3--3--3--3--3--3--5--5--5--5--5--5--5--5--5--5--5--5--5--5--5--5-|
Gb|-4--4--4--4--4--4--4--4--4--4--4--4--4--4--4--4--5--5--5--5--5--5--5--5--5--5--5--5--5--5--5--5-|
Db|-5--5--5--5--5--5--5--5--5--5--5--5--5--5--5--5--7--7--7--7--7--7--7--7--7--7--7--7--7--7--7--7-|
Ab|------------------------------------------------------------------------------------------------|
Eb|------------------------------------------------------------------------------------------------|



CHORUS I:
    Em                      D                       Am
Eb|-12----------------------------------10----------5-----------------------5----------------------|
Bb|-12----------------------------------10----------5-----------------------5----------------------|
Gb|-12----------------------11----------11----------5-----------------------5----------------------|
Db|-14----------------------12----------12----------7-----------------------7----------------------|
Ab|-14----------------------12----------------------7-----------------------7----------------------|
Eb|-12----------------------10----------------------5-----------------------5----------------------|
+
    Em                      D                       Am
Eb|-12----------------------------------10----------5-----------------------5----------------------|
Bb|-12----------------------------------10----------5-----------------------5----------------------|
Gb|-12----------------------11----------11----------5-----------------------5----------------------|
Db|-14----------------------12----------12----------7-----------------------7----------------------|
Ab|-14----------------------12----------------------7-----------------------7----------------------|
Eb|-12----------------------10----------------------5-----------------------5----------------------|
+
    Em       D        Bm    A
Eb|-12-------10-------7-----5-----------------------0----------------------------------------------|
Bb|-12-------10-------7-----5-----------------------0----------------------------------------------|
Gb|-12-------11-------7-----6-----------------------6----------------------------------------------|
Db|-14-------12-------9-----7-----------------------7----------------------------------------------|
Ab|-14-------12-------9-----7----------------------------------------------------------------------|
Eb|-12-------10-------7-----5----------------------------------------------------------------------|



CHORUS II:
    Em                      D                       Am
Eb|-12----------------------------------10----------5-----------------------5----------------------|
Bb|-12----------------------------------10----------5-----------------------5----------------------|
Gb|-12----------------------11----------11----------5-----------------------5----------------------|
Db|-14----------------------12----------12----------7-----------------------7----------------------|
Ab|-14----------------------12----------------------7-----------------------7----------------------|
Eb|-12----------------------10----------------------5-----------------------5----------------------|
+
    Em                      D                       C
Eb|-12----------------------------------10----------------------------------8----------------------|
Bb|-12----------------------------------10----------8-----------------------8----------------------|
Gb|-12----------------------11----------11----------9-----------------------9----------------------|
Db|-14----------------------12----------12----------10----------------------10---------------------|
Ab|-14----------------------12----------------------10----------------------10---------------------|
Eb|-12----------------------10---------------------------------------------------------------------|
+
    Em       D        Bm    A
Eb|-12-------10-------7-----5-----------------------0----------------------------------------------|
Bb|-12-------10-------7-----5-----------------------0----------------------------------------------|
Gb|-12-------11-------7-----6-----------------------6----------------------------------------------|
Db|-14-------12-------9-----7-----------------------7----------------------------------------------|
Ab|-14-------12-------9-----7----------------------------------------------------------------------|
Eb|-12-------10-------7-----5----------------------------------------------------------------------|



CHORUS III:
    Em                      D                       C
Eb|-12----------------------------------10----------------------------------8----------------------|
Bb|-12----------------------------------10----------8-----------------------8----------------------|
Gb|-12----------------------11----------11----------9-----------------------9----------------------|
Db|-14----------------------12----------12----------10----------------------10---------------------|
Ab|-14----------------------12----------------------10----------------------10---------------------|
Eb|-12----------------------10---------------------------------------------------------------------|
+
    Em                      D                       C
Eb|-12----------------------------------10----------------------------------8----------------------|
Bb|-12----------------------------------10----------8-----------------------8----------------------|
Gb|-12----------------------11----------11----------9-----------------------9----------------------|
Db|-14----------------------12----------12----------10----------------------10---------------------|
Ab|-14----------------------12----------------------10----------------------10---------------------|
Eb|-12----------------------10---------------------------------------------------------------------|



BRIDGE:
    D                                               B
Eb|-10----------------------------------------10----------------------------------8----------------|
Bb|-10----------------------------------------10----8-----8-----------------------8----------------|
Gb|-11----------------------11----------11----11----9-----8-----------------------9----------------|
Db|-12----------------------12----------12----12----10----10----------------------10---------------|
Ab|-12----------------------12----------12----------0-----8-----------------------0----------------|
Eb|-10----------------------10----------10---------------------------------------------------------|



OUTRO:
 * free jazz sax throughout
Eb|-10----------------------------------------------0----------------------------------------------|
Bb|-10----------------------------------------------0----------------------------------------------|
Gb|-11----------------------------------------------0----------------------------------------------|
Db|-0-----------------------------------------------0----------------------------------------------|
Ab|-------------------------------------------------0----------------------------------------------|
Eb|-------------------------------------------------0----------------------------------------------|



MORE DETAILS TBA



SONG STRUCTURE:

INTRO x 3
VERSE x 2
CHORUS I
INTERLUDE x 3
VERSE x 3
CHORUS II
INTERLUDE x 4
VERSE x 4
SOLO x 2
CHORUS III
BRIDGE x 4
OUTRO x fade out



That's it.  Please leave any comments, questions, or requests.  Cheers!
-Bennyshambles78-


Добавлено: 05.12.2015
Другие материалы по этой песне:
  • Аккорды и текст

Страница создана 06.06.2012
http://primanota.ru/ariel-pinks-haunted-graffiti/life-in-la-chords.htm
Привет, Гость.
Предлагаем пройти революционный курс по гитаре.
Подарок от PrimaNota.Ru, забирай!