PrimaNota.ru - самый крупный в мире бесплатный архив песенных текстов, аккордов, табулатур и нот


Ariel Pink - White Freckles - таба, видео

Регистрация Запомнить меня
Войти через:  Facebook Google Twitter Vk Yandex Mail.ru

Ariel Pink - White Freckles - таба, видео

Печатать
Просмотров: 122
-------------------------------------------------------------------------------
            Ariel pink - White Freckles          
-------------------------------------------------------------------------------
Tabbed by: Tim

Tuning: standard


Intro
e|-------------5---7---9-----------------9\7~------------7-----7--5----------|
B|-7-----9-------7---9---10----10----------------7------------------7--------|
G|---7-----9----------------11-------6h7-----------7-------7-----------------|
D|---------------------------------9-----------------(9)---------------------|
A|---------------------------------------------------------------------------|
E|---------------------------------------------------------------------------|

e|------------------------------------------------7--------------------------|
B|-9----------------7-----7-5~--------9-------------9-10-7---7-----7---------|
G|---9------4---------------------------9---9--------------6-----6---6-------|
D|------------6-4-----4h6-----------------9--------------------7-------------|
A|--------------------------------------------11-----------------------------|
E|---------------------------------------------------------------------------|
                              HEY!
e|--------------9--------9\7~-------5------9---------------------------------|
B|-7-----7-5~---9---7-10--------------7------7---10--9-----------9--7-----7--|
G|----------------7------------------------------------9-----9--------6-9----|
D|---6-7-------------------------------(7)-----------------9-----------------|
A|---------------------------------------------------------------------------|
E|---------------------------------------------------------------------------|
              HEY!
e|-----------------9-------9-7~--|
B|-------7-5~------9-----7-------|
G|-------------------6-7---------|
D|---6-7-------------------------|
A|-9-----------------------------|
E|-------------------------------| x2. Second one has some very minor 
                                       differences
Verse (first bar is guitarless)
e|-------------------------7-|-----------------------------------------------|
B|---777-----9-9-----7---7---|----777-----9-9-----7---7----------------------|
G|-9-----9-9-----9-9---9-----|--9-----9-9-----9-9---9-------repeated---------|
D|---------------------------|--------------------------9--------------------|
A|---------------------------|-----------------------------------------------|
E|---------------------------|-----------------------------------------------|

"white freckles baby!" (hard to figure out due to lo-fi-ness)
e|-5---7---9-------5---7----9-----5---7---9-------5---7-9-12-9---------------|
B|---7---9---10------7---9----------7---9---10-------------------------------|
G|--------------11-----------------------------11----------------------------|
D|---------------------------------------------------------------------------|
A|---------------------------------------------------------------------------|
E|---------------------------------------------------------------------------|

Back to verse. Repeat that a couple of times, then the main intro guitar 
crazyness comes back. Some parts may be altered, like playing some notes an
octave lower or something.

Please feel free to comment for more efficient fingerings or mistakes or 
whatever.




************************************

| /   slide up
| \   slide down
| h   hammer-on
| p   pull-off
| ~   vibrato
| +   harmonic
| x   Mute note
| b   Bend
| pb  Pre-bend
| br  Bend release
| pbr Pre-bend release
| brb Bend release bend

************************************
Добавлено: 19.05.2015
Другие материалы по этой песне:
  • Аккорды и текст

Страница создана 19.05.2015
http://primanota.ru/ariel-pink/white-freckles-chords.htm
Привет, Гость.
Предлагаем пройти революционный курс по гитаре.
Подарок от PrimaNota.Ru, забирай!