PrimaNota.ru - самый крупный в мире бесплатный архив песенных текстов, аккордов, табулатур и нот


Ariel Pink - Sexual Athletics - таба, видео

Регистрация Запомнить меня
Войти через:  Facebook Google Twitter Vk Yandex Mail.ru

Ariel Pink - Sexual Athletics - таба, видео

Печатать
Просмотров: 153
-------------------------------------------------------------------------------
                       SEXUAL ATHLETICS - Ariel Pink
-------------------------------------------------------------------------------
Tabbed by: Vince Noir
E-mail: stupidbobbybob@gmail.com

Tuning: standard

Intro:
e|---------------------------------------------------------------------------|
B|---------------------------------------------------------------------------|
G|-----------7b-5------------------------------------------------------------|
D|-7-7--5-7--------77777--5-----5--------------------------------------------|
A|--------------------------7------------------------------------------------|
E|---------------------------------------------------------------------------|

Next part:
e|---------------------------------------------------------------------------|
B|-10-10-8--10---------------------------------------------------------------|
G|-9--9--7--9---7b-5---------------------------------------------------------|
D|-------------------77777-5----5--------------------------------------------|
A|---------------------------7-----------------------------------------------|
E|---------------------------------------------------------------------------|

Pre-interlude:
e|---------------------------------------------------------------------------|
B|---------------------------------------------------------------------------|
G|---------------------------------------------------------------------------|
D|-5---6---7-----------------------------------------------------------------|
A|---------------------------------------------------------------------------|
E|---------------------------------------------------------------------------|

Interlude(there's no guitar, so these are just chords):
e|---------------------------------------------------------------------------|
B|-5---6---------------------------------------------------------------------|
G|-5---7---------------------------------------------------------------------|
D|-5---7---------------------------------------------------------------------|
A|-3---5---------------------------------------------------------------------|
E|---------------------------------------------------------------------------|

************************************

| /   slide up
| \   slide down
| h   hammer-on
| p   pull-off
| ~   vibrato
| +   harmonic
| x   Mute note
| b   Bend
| pb  Pre-bend
| br  Bend release
| pbr Pre-bend release
| brb Bend release bend

************************************
Добавлено: 10.07.2015
Другие материалы по этой песне:
  • Аккорды и текст

Страница создана 10.07.2015
http://primanota.ru/ariel-pink/sexual-athletics-chords.htm
Привет, Гость.
Предлагаем пройти революционный курс по гитаре.
Подарок от PrimaNota.Ru, забирай!