PrimaNota.ru - самый крупный в мире бесплатный архив песенных текстов, аккордов, табулатур и нот


Ariel Pink - Negativ Ed - бас-таба, видео

Регистрация Запомнить меня
Войти через:  Facebook Google Twitter Vk Yandex Mail.ru

Ariel Pink - Negativ Ed - бас-таба, видео

Печатать
Просмотров: 132
Уроки эстрадного вокала в Санкт-Петербурге
-------------------------------------------------------------------------------
                             NEGATIV ED - Ariel Pink
-------------------------------------------------------------------------------
Tabbed by: waffuru
E-mail: waffuruisasweeb@gmail.com

Tuning: EADG (Standard)

Intro (x2)
G|---------------------------------------------------------------------------|
D|-------5---3---2---0-------------------------------------------------------|
A|---2-5---5---3---3---3-2-0-2-----------------------------------------------|
E|-3----------------------------3333333--------------------------------------|

Intro Part II (x2)
G|---------------------------------------------------------------------------|
D|----------3-2-0------------------------------------------------------------|
A|-------3~-------3--2-0-2---------------------------------------------------|
E|-1-1-1-------------------3-3333333-----------------------------------------|

Verse (x12)              Variation 
G|----------------------|----------------------------------------------------|
D|----------------------|----------------------------------------------------|
A|-3333------1-0-1-0----|-3333------1-0--------------------------------------|
E|------3333------------|------3333-----3-1----------------------------------|

Intro Part II (x2)
G|---------------------------------------------------------------------------|
D|----------3-2-0------------------------------------------------------------|
A|-------3~-------3--2-0-2---------------------------------------------------|
E|-1-1-1-------------------3-3333333-----------------------------------------|

Pre-Chorus (x4)
G|---------------------------------------------------------------------------|
D|-555-------3-2-0-----------------------------------------------------------|
A|-----5-555-------3--111-3-33--1-0------------------------------------------|
E|----------------------------------3-1--------------------------------------|

Chorus (x4)
G|---------------------------------------------------------------------------|
D|---------------------------------------------------------------------------|
A|-333-3-----1-0-1-0---------------------------------------------------------|
E|-------333-----------------------------------------------------------------|

Interlude (x1)
G|---------------------------------------------------------------------------|
D|-----------------------5---3---2---0---------------------------------------|
A|------------------2-5----5---3---3---3-2-0-2-------------------------------|
E|-3(x20)/15(x16)-3----------------------------3(x16)------------------------|

G|---------------------------------------------------------------------------|
D|--------5---3---2---0------------------------------------------------------|
A|---2-5----5---3---3---3-2-0-2----------------------------------------------|
E|-3----------------------------33333333-------------------------------------|

Intro Part II (x2)
G|---------------------------------------------------------------------------|
D|----------3-2-0------------------------------------------------------------|
A|-------3~-------3--2-0-2---------------------------------------------------|
E|-1-1-1-------------------3-3333333-----------------------------------------|

Verse (x4)              
G|---------------------------------------------------------------------------|
D|-5555---------------5555------3-2-3-2--------------------------------------|
A|-----5555--1-0-1-3------5555-----------------------------------------------|
E|---------------------------------------------------------------------------|

Pre-Chorus AND Chorus(x9)
G|---------------------------------------------------------------------------|
D|---------------------------------------------------------------------------|
A|-3333-----1-0-1-0----------------------------------------------------------|
E|-------333-----------------------------------------------------------------|

Pre-Chorus (x4)
G|---------------------------------------------------------------------------|
D|-555-------3-2-0-----------------------------------------------------------|
A|-----5-555-------3--111-3-33--1-0------------------------------------------|
E|----------------------------------3-1--------------------------------------|

Intro Part II (x2)
G|---------------------------------------------------------------------------|
D|----------3-2-0------------------------------------------------------------|
A|-------3~-------3--2-0-2---------------------------------------------------|
E|-1-1-1-------------------3-3333333-----------------------------------------|

Outro (x1)
G|---------------------------------------------------------------------------|
D|-------5---3---2---0-------------------------------------------------------|
A|---2-5---5---3---3---3-2-0-2-----------------------------------------------|
E|-3----------------------------3~-------------------------------------------|

Great song by Ariel Pink, from his first solo album "pom pom", released in 2014. I learned this song by ear. 
I strongly recommend listening to the song for timing on the verse variation and the interlude, since I don't
think I was exactly right on that.

Lyrics:
Negativ Ed, don't play my bassline wrong, dickhead!
Negativ Ed, they say you are a nervous ned.
Negativ Ed, lives in my brain, out of his head!
Negativ Ed, he's not ok, and I'm just dead.

Ned.
Don't bump the Negativ Ed.
Don't bump the Negativ Ed.
Don't bump the Negativ Ed.
WOW!!!

Negativ Ed! (Yeah, yeah, yeah, yeah!)
Negativ Ed! (Yeah, yeah, yeah, yeah!)
Negativ Ed! (Yeah, yeah, yeah, yeah!)
Negativ Ed! (Yeah, yeah, yeah, yeah!)
Negativ Ed! (Oh, why you so negative?)
Negativ Ed! (Out of his head!)
Negativ Ed! (Oh, leave him alone!)
Negativ Ed! (He's anti, anti..)

Negativ Ed, Negative- Ya ya ya ya.
Negativ Ed, Negative- Ya ya ya ya.
Negativ Ed, Negative- Ya ya ya ya.
Negativ Ed, Negative- Ya ya ya ya.

Negativ Ed, (???)
Negativ Ed, my name is Ar-i-el, dickhead!
Negativ Ed, (???)
Negativ Ed, out of his way, he's anti-dead!

Ned.
Don't bump the Negativ Ed.
Don't bump the Negativ Ed.
Don't bump the negatory- Ya ya ya ya.
Negatory, negatory, ya ya ya ya.
Negatory, negatory, ya ya ya ya.
Negatory, negatory, ya ya ya ya.
Negatory, negatory, ya ya ya ya.
Negatory, negatory, ya ya ya ya.
Negativ Ed!! (Oh, why you so negative?)
Negativ Ed!! (Out of his head!)
Negativ Ed!! (Oh, leave him alone!)
Negativ Ed!! (He's anti, anti..)
Negativ Ed!! (Oh, why you so negative?)
Negativ Ed!! (Out of his head!)
Negativ Ed!! (Oh, leave him alone!)
Negativ Ed!! (He's anti, anti, dead!)

(Dead!)
(He's anti, anti..)
(Dead!)



| /  slide up
| \  slide down
| h  hammer-on
| p  pull-off
| ~  vibrato
| +  harmonic
| x  Mute note
===============================================================================
Добавлено: 02.09.2015
Другие материалы по этой песне:
  • Аккорды и текст

Страница создана 02.09.2015
http://primanota.ru/ariel-pink/negativ-ed-chords.htm
Привет, Гость.
Предлагаем пройти революционный курс по гитаре.
Подарок от PrimaNota.Ru, забирай!