PrimaNota.ru - самый крупный в мире бесплатный архив песенных текстов, аккордов, табулатур и нот


Ariel Pink - Jell-o - аккорды и текст, видео

Регистрация Запомнить меня
Войти через:  Facebook Google Twitter Vk Yandex Mail.ru

Ariel Pink - Jell-o - аккорды и текст, видео

Печатать
Просмотров: 84
Jell-o
Ariel Pink
Ariel Pink - Jell-O
song: https://www.youtube.com/watch?v=IAIeconvvgE

CHORUS
e|-----------------------------------------------------------------------------------------------------|
B|-----------------------------------------------------------------------------------------------------|
G|-----------------------------------------------------------------------------------------------------|
D|-------------5-5-3-3------------------2-2-2--------------------5-5-3-3------2-2-5-5-----2------------|
A|-----2-2-5-5------------------2-2-5-5-------5----------2-2-5-5----------------------5-5---5-3--------|
E|-3-3----------------------3-3----------------------3-3-----------------------------------------------|

Jell-o, jell-o, jell-o
    Jell-o, jell-o
Jell-o, jell-o, jell-o (jell-o)
    Jell-o, jell-o (woo- oo!)

F
Sticky cubes up
C
Kool-aid action
G        C
Big width sky
G     C
Big satisfaction

e|---------------------------------------------------|
B|---------------------------------------------------|
G|---------------------------------------------------|
D|-------------5-5-3-3------------------2------------|
A|-----2-2-5-5------------------2-2-5-5---5-3--------|
E|-3-3----------------------3-3----------------------|
Jell-o, jell-o, jell-o
    Jell-o, jell-o buzz

E
Stripmall, stripmall is calling
Can you hear the people?
F#
Wearing all our clothes 
into church steeples
E
Mom and dad are normal
Everyone needs white bread
That's why they're all dead

DUAL GUITAR RIFF

Guitar 1
   G                                       A                                                         D
e|------------------------------------------------------------------------------------------------------|
B|------------------------------------------------------------------------------------------------------|
G|-12--12-----12--12--9---------12--12----14-14-----14--14--11----------14-14----14--14--11----------14-|
D|----------------------12-10-9--------------------------------14-12-11---------------------14-12-11----|
A|------------------------------------------------------------------------------------------------------|
E|------------------------------------------------------------------------------------------------------|

Guitar 2
A
   G                                      A                                                          D
e|------------------------------------------------------------------------------------------------------|
B|-12--12-----12--12--10---------12--12---14-14-----14--14--12----------14-14----14--14--12----------15-|
G|-----------------------12-9----------------------------------14-11------------------------14-11-------|
D|----------------------------12-------------------------------------14---------------------------14----|
A|------------------------------------------------------------------------------------------------------|
E|------------------------------------------------------------------------------------------------------|

CHORUS

e|-----------------------------------------------------------------------------------------------------|
B|-----------------------------------------------------------------------------------------------------|
G|-----------------------------------------------------------------------------------------------------|
D|-------------5-5-3-3------------------2-2-2--------------------5-5-3-3------2-2-5-5-----2------------|
A|-----2-2-5-5------------------2-2-5-5-------5----------2-2-5-5----------------------5-5---5-3--------|
E|-3-3----------------------3-3----------------------3-3-----------------------------------------------|

Jell-o, jell-o, jell-o (yeah)
    Jell-o, jell-o (ooargh)
Jell-o, jell-o, jell-o (jell-o)
    Jell-o, jell-o

Now moving on now, spreads the jell-o evenly on other ...

BRIDGE
C
I, I, I eat Jell-o
G
I, I, I eat corn
C
I, I, I eat Jell-o
  C             G
Before I was an embryo
G                C
That's why I was born

I believe in reincarnation, that's why I eat Jell-o. It's good for the stomach.

GUITAR SOLO
C   Bb    \ 8x
F         /

OUTRO
e|---------------------------------------------------|
B|---------------------------------------------------|
G|---------------------------------------------------|
D|-------------5-5-3-3------------------2------------|\ 
A|-----2-2-5-5------------------2-2-5-5---5-3--------| 2x
E|-3-3----------------------3-3----------------------|/
Добавлено: 02.09.2015
Другие материалы по этой песне:
  • Аккорды и текст

Страница создана 02.09.2015
http://primanota.ru/ariel-pink/jell-o-chords.htm
Привет, Гость.
Предлагаем пройти революционный курс по гитаре.
Подарок от PrimaNota.Ru, забирай!