PrimaNota.ru - самый крупный в мире бесплатный архив песенных текстов, аккордов, табулатур и нот


Ariel Pink - Black Ballerina - бас-таба, видео

Регистрация Запомнить меня
Войти через:  Facebook Google Twitter Vk Yandex Mail.ru

Ariel Pink - Black Ballerina - бас-таба, видео

Печатать
Просмотров: 128
-------------------------------------------------------------------------------
                          BLACK BALLERINA - Ariel Pink
-------------------------------------------------------------------------------
Tabbed by: prokacper
E-mail: prokacper4@o2.pl

Tuning: EADG

Verse (chords in the background are C and Bb)

G|---------------------------------------------------------------------------|
D|-8-8---------------------6-6-----------------------------------------------|
A|-------3-3---5-5---6-6---------3-3---6-6---8-8-----------------------------|
E|---------------------------------------------------------------------------|

G|---------------------------------------------------------------------------|
D|-8-8-----------------------------------------------------------------------|
A|-------5-5---6-6---8-8---6-6---3-3-----------------------------------------|
E|-------------------------------------4-4---1-------------------------------|

Chorus (chords are Bb - Ab - Db - Fm7)

G|---------------------------------------------------------------------------|
D|---------------------------------------------------------------------------|
A|-----------3-4-6--3-------3------------------------------------------------|
E|-6---6-4--------------1-----4-1--------------------------------------------|
Добавлено: 02.09.2015
Другие материалы по этой песне:
  • Аккорды и текст

Страница создана 02.09.2015
http://primanota.ru/ariel-pink/black-ballerina-chords.htm
Привет, Гость.
Предлагаем пройти революционный курс по гитаре.
Подарок от PrimaNota.Ru, забирай!