PrimaNota.ru - самый крупный в мире бесплатный архив песенных текстов, аккордов, табулатур и нот


Ari Zizzo - Alone - таба, видео

Регистрация Запомнить меня
Войти через:  Facebook Google Twitter Vk Yandex Mail.ru

Ari Zizzo - Alone - таба, видео

Печатать
Просмотров: 15
-------------------------------------------------------------------------------
                             ALONE - Ari Zizzo
-------------------------------------------------------------------------------
Tabbed by: NateoMacca
E-mail: NateoMacca@Gmail.com

Tuning: C G C E F G

e|------0--------0--------0--------0--------0--------0-------0-------0-------|
B|----0--------0--------0--------0--------0--------0-------0-------0---------|
G|--0--------0--------0--------0--------0--------0-------0-------0-----------| Repeat
D|0-------0---------2---------2--------5--------5-------5-------5------------|
A|0-------0---------2---------2--------5--------5-------5-------5------------|
E|0-------0---------2---------2--------5--------5-------5-------5------------|


*Disclaimer* I do not own the song I have nothing to do with it. I have tabbed it for 
             recreational purposes only.

Really beautiful song by Ari Zizzo featured at the end of the movie "Boy Meets Girl"

Sounds pretty accurate to my ear I've guessed the tuning but It sounds like it's accurate.
This section is the intro and is repeated for the verses the rest is pretty easy to figure out.
Hope you like it.



************************************

| /   slide up
| \   slide down
| h   hammer-on
| p   pull-off
| ~   vibrato
| +   harmonic
| x   Mute note
| b   Bend

************************************
Добавлено: 17.06.2016
Другие материалы по этой песне:
  • Аккорды и текст

Страница создана 17.06.2016
http://primanota.ru/ari-zizzo/alone-chords.htm
Привет, Гость.
Предлагаем пройти революционный курс по гитаре.
Подарок от PrimaNota.Ru, забирай!