PrimaNota.ru - самый крупный в мире бесплатный архив песенных текстов, аккордов, табулатур и нот


Arghoslent - Oracle Of The Malefic Rhizome - таба, видео

Регистрация Запомнить меня
Войти через:  Facebook Google Twitter Vk Yandex Mail.ru

Arghoslent - Oracle Of The Malefic Rhizome - таба, видео

Печатать
Просмотров: 173
Band:  Arghoslent
Album: Hornets of the Pogrom
Song:  Oracle of the Malefic Rhizome

www.arghoslent.cjb.net

Tabbed by: Zach Kraemer

Copyright (c) Drakkar Productions 2008

.  - palm mute           b  - Bend
/  - slide up to         r release bend
\  - slide down to       ~  - vibrato bend
~  - vibrato             = - let ring
h  - hammer on           "  - tremolo note
p  - pull off

Tuning: DGCFAD

 Riff 1
|-------------------------------------------------------------------------------------|
|-------------------------------------------------------------------------------------|
|-------------------------------------------------------------------------------------|
|-9-9-9-7/9\7/9\7-9-9-9-9/16-16-16-16-14-14-14-12/14\12/14\12-14-14-14-14/16-16-16-16-|
|-7-7-7-5/7\5/7\5-7-7-7-7/14-14-14-14-12-12-12-10/12\10/12\10-12-12-12-12/14-14-14-14-|
|-------------------------------------------------------------------------------------|

 Riff 2
|-----------------------------------------------------------------|
|-----------------------------------------------------------------|
|-----------------------------------------------------------------|
|-9-9-9-7/9\7/9\7-9-9-9-9\4-4-4-4---------------------------------|
|-7-7-7-5/7\5/7\5-7-7-7-7\2-2-2-2-7-7-7-5/7\5/7\5-7-7-7-7-9-9-9-9-|
|---------------------------------5-5-5-3/5\3/5\3-5-5-5-5-7-7-7-7-|

 Riff 3
|--------------------------------------------|
|--------------------------------------------|
|--------------------------------------------|
|-9--8------------------9--8-----------------|
|-7--6-10-9--7--9-10-9--7--6-10-9--7--6-3-2--|
|-------8-7--5--7--8-7--------8-7--5--4-1-0--|

 Gtr. 1
 Riff 4
|------------------------------------------------------------|
|------------------------------------------------------------|
|------------------------------------------------------------|
|------------------------------------------------------------|
|-7"-6"-7"-10"-7"-10"-9"--6"--7"-6"----6"--------------------|
|-----------------------------------8"----8"-7"-8"-7"-6"-7"--|
|Gtr. 2
|Fill 1
|------------------------------------------------------------|
|------------------------------------------------------------|
|------------------------------------------------------------|
|-----------------------------9--8--5--8--5--4--5--4--3--4---|
|-----------------------------7--6--3--6--3--2--3--2--1--2---|
|-----------------------------7--6--3--6--3--2--3--2--1--2---|

 Riff 4 (cont'd)
|---------------------------------------|
|---------------------------------------|
|---------------------------------------|
|---------------------------------------|
|---------------------10"-9"--7"-6"--9"-|
|-3"-0"-3"-6"--7"-6"--------------------|
|
|Fill 1 (cont'd)
|---------------------------------------|
|---------------------------------------|
|---------------------------------------|
|---------------------12--11--9--8---11-|
|---------------------10--9---7--6---9--|
|---------------------10--9---7--6---9--|

 Riff 5
|-------------------------------------------------------|
|-------------------------------------------------------|
|-------------------------------------------------------|
|-------------------------------------------------------|
|-7"---6"-----------------------------------------------|
|-----------8"--7"--6"-7"--8"-7"---8"--7"--6"-2"---6"---|

 Riff 6
|--------------------------------------------------|
|--------------------------------------------------|
|--------------------------------------------------|
|-5-----7---7-4------------------------------------|
|-7-777-7-777-5-555-5-----3-----3-----7-----10---7-|
|-------------------3-333-5-55555-555-8-888-8--888-|

 Fill 2
|-----------------------|
|-----------------------|
|-----------------------|
|-------------------2=--|
|-2-2-2-2-2-2-2-2-2-2=--|
|-0-0-0-0-0-0-0-0-0-0=--|
pm. . . . . . . . . 

 Riff 7
|--------------------------------------------------------------------|
|--------------------------------------------------------------------|
|--------------------------------------------------------------------|
|-9-8-9-12-9-12-11-8--9-8-5-8-5-4-5-4-3-4---5-2-5-8-9-8-12-11-9-8-11-|
|-7-6-7-10-7-10-9--6--7-6-3-6-3-2-3-2-1-2---5-2-5-8-9-8-10-9--7-6-9--|
|-7-6-7-10-7-10-9--6--7-6-3-6-3-2-3-2-1-2---3-0-3-6-7-6-10-9--7-6-9--|

Guitar Solo 1
|--------------------------7b-7br-5-4--5-4-----------------|
|-5---5---4---7b--7br-5-4~-----------------7-5-7-5-4-5-4---|
|-7b--7b--6b---------------------------------------------6-|
|----------------------------------------------------------|
|----------------------------------------------------------|
|----------------------------------------------------------|

|-------------------------------------|
|-------------------------------------|
|-9--8--6--13-11--8--9--8--6--4---13--|
|-x--x--x---x--x--x--x--x--x--x----x--|
|-7--6--4--11--9--6--7--6--4--2---11--|
|-------------------------------------|

 Riff 8 (under solo)
|-----------------------------------------------------|
|-----------------------------------------------------|
|-----------------------------------------------------|
|-------------------------------------6-7----6-4------|
|-7-----7----6-4-----4-----5-----5----7-9-99-7-5-5555-|
|-9-999-9-99-7-5-555-5-555-7-777-7-77-----------------|
pm  ...   ..     ...   ...   ...   ..     ..     ....

 Riff 9
|------------------------------------------------|
|------------------------------------------------|
|------------------------------------------------|
|-2------2------2----------2---------------------|
|-4-4444-4-4444-4-44-2-----4-4444-4-2---4-2-4-2--|
|----------------------4~-------------4-2-0-2-0--|
pm  ....   ....              ....       . . .

 Riff 9 (cont'd)
|------------------------------------------------|
|------------------------------------------------|
|------------------------------------------------|
|-2------2------2----------2---------------------|
|-4-4444-4-4444-4-44-2-----4-4444-4-2---4-2-4----|
|----------------------4~-------------4-2-0-2-4~-|
pm  ....   ....              ....       . . .

 Riff 9 (cont'd)
|----------------------------------------------------------|
|----------------------------------------------------------|
|----------------------------------------------------------|
|----------------------9-7h9p7-6---------------------------|
|-4------4------6----------------7-----7------------7------|
|-5-5555-5-5555-7-7777-----------9-9-9-9-9999-9-9-9-9-9999-|
pm  ....   ....   ....             . .   .... . . .   ....

 Riff 9 (cont'd)
|------------------------------|
|------------------------------|
|------------------------------|
|--------------------7-6-------|
|-4------4------7-6--9-7--6-7--|
|-5-5555-5-5555-9-7-------7-9--|
pm  ....   ....

 Riff 10a
|-------------------------------------------------|
|-------------------------------------------------|
|-------------------4-----------------------------|
|-------6---6-7-6-7---7-6-------------------4-----|
|-7-4-7---7---------------------6---6-7-6-7---7-6-|
|-------------------------7-4-7---7---------------|
|
|Riff 10b
|-------------------------------------------------|
|-------------------------------------------------|
|-6-6-6-6-6-6-------------------------------------|
|-6-6-6-6-6-6-2-2-2-2-2-3-4-4-4-4-4-4-6-6-6-6-6-6-|
|-4-4-4-4-4-4-2-2-2-2-2-3-4-4-4-4-4-4-6-6-6-6-6-6-|
|-------------0-0-0-0-0-1-2-2-2-2-2-2-4-4-4-4-4-4-|

Guitar Solo 2
|-----------------------------------------------------------------------------|
|------------4h5-7-4~-----------------------------------------4-5-4-5-7-5-7b~-|
|------6---6--------------------------------9-8----4------4-6-----------------|
|--------6----------------------------------x-x-/6---6--6---------------------|
|-4--4----------------4-44-2-4-2------------7-6-------------------------------|
|--------------------------------4-2-0-2-4------------------------------------|
                   pm . .. . . . . . . . 

|-------------------------------------|
|-------------------------------------|
|-9--8--6--13-11--8--9--8--6--4---13--|
|-x--x--x---x--x--x--x--x--x--x----x--|
|-7--6--4--11--9--6--7--6--4--2---11--|
|-------------------------------------|


Structure
Riff 1 x2
Riff 2 x1
Riff 1 x1
Riff 3 x2
Riff 1 x2
Riff 2 x1
Riff 1 x1
Riff 3 x2
Riff 4 x1 w/Fill 1 x1
Riff 5 x1
Riff 6 x4
Fill 2 x1
Riff 4 x2
Riff 7 x1
Riff 4 x1
Riff 5 x1
Riff 6 x4
Fill 2 x1
Riff 6 x4
Fill 2 x1
Solo 1 w/Riff 8 x4
Riff 9 x2
Riff 10a & 10b x4
Riff 9 x2
Riff 10a & 10b x4
Solo 2 w/Riff 8 x4
Riff 9 x1
Добавлено: 22.07.2012
Вам также может быть интересно:
Другие материалы по этой песне:
  • Аккорды и текст

Страница создана 22.07.2012
http://primanota.ru/arghoslent/oracle-of-the-malefic-rhizome-chords.htm
Привет, Гость.
Предлагаем пройти революционный курс по гитаре.
Подарок от PrimaNota.Ru, забирай!