PrimaNota.ru - самый крупный в мире бесплатный архив песенных текстов, аккордов, табулатур и нот


Arghoslent - Manacled Freightage - таба, видео

Регистрация Запомнить меня
Войти через:  Facebook Google Twitter Vk Yandex Mail.ru

Arghoslent - Manacled Freightage - таба, видео

Печатать
Просмотров: 146
Band:  Arghoslent
Album: Hornets of the Pogrom
Song:  Mancled Freightage

Tabbed by: Zach Kraemer

Copyright (c) Drakkar Productions 2008

.  - palm mute           b  - Bend
/  - slide up to         r  - release bend
\  - slide down to       ~  - vibrato bend
~  - vibrato             =  - let ring
h  - hammer on           "  - tremolo note
p  - pull off            x\ - pick scrape

Tuning: DGCFAD

 Riff 1
                          2x                          2x
|---------------------------|---------------------------|
|---------------------------|---------------------------|
|---------------------------|---------------------------|
|---------------------------|---------------------------|
|-----------------4-3-2-3-4-|-----------------3-2-1-2-3-|
|-2-2-2-2-5-5-5-5-----------|-1-1-1-1-4-4-4-4-----------|

Fill 1
           2x
|------------|---------------------------------|
|------------|---------------------------------|
|------------|---------------------------------|
|---------7--|---------6---------------6-------|
|-4-4-4-4-7--|-3-3-3-3-6-------3-3-3-3-6----x\-|
|-2-2-2-2-5--|-1-1-1-1-4-------1-1-1-1-4----x\-|
pm. . . . .    . . . . .       . . . . .

 Riff 2
|-------------------------------|
|-------------------------------|
|-------------------------------|
|-4-4--4-6/7-5-5--5/6\5/6\5/6\5-|
|-4-4--4-6/7-5-5--5/6\5/6\5/6\5-|
|-2-2--2-4/5-3-3--3/4\3/4\3/4\3-|

Riff 3
|------------------------------------------------------|
|------------------------------------------------------|
|------------------------------------------------------|
|-----------2------------------------2-----------------|
|----2--------5-4-2---2-4-----2--------5-4-2---2-------|
|-2----5-4----------5------2----5-4----------5---2---0-|
  "  " " "  " " " " " " "  "  " " "  " " " " " " "   "

 Riff 3 (cont'd)
|------------------------------------------------------|
|------------------------------------------------------|
|------------------------------------------------------|
|-4--9-7-6--14-12-11-9-7-9-11-4--9-7-6--14-12-11-9-7-9-|
|-4--9-7-6--14-12-11-9-7-9-11-4--9-7-6--14-12-11-9-7-9-|
|-2--7-5-4--12-10-9--7-5-7-9--2--7-5-4--12-10-9--7-5-7-|
  "  " " "  "  "  "  " " " "  "  " " "  "  "  "  " " "

 Riff 4
|----------------------------------------------------|
|----------------------------------------------------|
|----------------------------------------------------|
|-7-0-0-0-12-12-0-0-12-12-8-8-7--77-8-3-5-2-3-0-<2>~-|
|-----------------------------------8-3-5-2-3-0------|
|----------------------------------------------------|
pm. . . . .  .  . . .  .  . . .  ..

 Riff 4a
|------------------------------------------------------|
|------------------------------------------------------|
|------------------------------------------------------|
|-7-0-0-0-12-12-0-0-12-12-8-8-7--77-8-3-5-2-3-0-2------|
|-----------------------------------8-3-5-2-3-0-2-3-5--|
|-------------------------------------------------3-5--|
pm. . . . .  .  . . .  .  . . .  ..

 Riff 5
|------------------------------|
|------------------------------|
|------------------------------|
|-3--------------0-------------|
|-5--7-5-8-5-7-5-1--5-1-0-1-0--|
|------------------------------|
  "  " " " " " " "  " " " " "

 Riff 6
                             3x
|------------------------------|-------------------------------|
|------------------------------|-------------------------------|
|-------------9p5---5---7---7--|-------------9p5---5-9-10-7-7--|
|-7--7-10-7-7-----5---5---7----|-7--7-10-7-7-----5-------------|
|-5--5-8--5-5------------------|-5--5-8--5-5-------------------|
|-5--5-8--5-5------------------|-5--5-8--5-5-------------------|

 Riff 7
|------------------------------------------|
|------------------------------------------|
|-2----------2p0h2-2----------2p0h2-0--0-0-|
|-3----------------3----------------3--3-3-|
|-5--5-5-5-5-------3--3-3-3-3-------2--2-2-|
|------------------------------------------|
pm   . . . .          . . . .
 
 Riff 7 (cont'd)
|--------------------------------------------------------------|
|--------------------------------------------------------------|
|-7----7-9-10-9-7----14----14-12-10-12-9----7----7-9-10-9-7----|
|-7----7-9-10-9-7----14----14-12-10-12-9----7----7-9-10-9-7----|
|-5----5-7-8--7-5----12----12-10-8--10-7----5----5-7-8--7-5----|
|---00------------00----00---------------00---00------------00-|
pm  ..            ..    ..               ..    ..           ..

 Riff 8
|------------------------------------------------------------------|
|------------------------------------------------------------------|
|-2----------2p0h2-2----------2p0h2-0----------------0-------------|
|-3----------------3----------------3----------5p3h5-0------3------|
|-5--5-5-5-5-------3--3-3-3-3-------2--2-2-2-2-------2--2-2-3------|
|-----------------------------------------------------------5--5-5-|
pm   . . . .          . . . .          . . . .          . .    . .

Final Chord
|------|
|------|
|-2\---|
|-3\---|
|-5\---|
|------|

Structure
Riff 1 x1 w/Fill 1
Riff 1 x5
Riff 2 x4
Riff 3 x2
Riff 1 x3
Riff 1 x1 w/Fill 1
Riff 2 x4
Riff 3 x2
Riff 4 x3
Riff 4a x1
Riff 5 x4
Riff 6 x2
Riff 7 x1
Riff 8 x1
Riff 4 x3
Riff 4a x1
Riff 5 x4
Riff 6 x2
Riff 7 x1
Riff 8 x4
Final Chord
Добавлено: 08.03.2012
Другие материалы по этой песне:

Страница создана 08.03.2012
http://primanota.ru/arghoslent/manacled-freightage-chords.htm
Привет, Гость.
Предлагаем пройти революционный курс по гитаре.
Подарок от PrimaNota.Ru, забирай!