PrimaNota.ru - самый крупный в мире бесплатный архив песенных текстов, аккордов, табулатур и нот


Arghoslent - Heirs To Perdition - текст песни, таба, видео

Регистрация Запомнить меня
Войти через:  Facebook Google Twitter Vk Yandex Mail.ru

Arghoslent - Heirs To Perdition - текст песни, таба, видео

Печатать
Просмотров: 179
Band:  Arghoslent
Album: Incorrigible Bigotry
Song:  Heirs to Perdition

www.arghoslent.cjb.net

Tabbed by: Zach Kraemer

Copyright (c) Drakkar Productions 2008

.  - palm mute           b  - Bend
/  - slide up to         r release bend
\  - slide down to       b~  - vibrato bend
~  - vibrato             = - let ring
h  - hammer on           "  - tremolo note
p  - pull off

Tuning: DGCFAD

 Riff 1
|------------------------------------------------------------------|
|------------------------------------------------------------------|
|------------------------------------------------------------------|
|-6------------9-7-10------------9-7-6------------9-7-10-9-3--7--3-|
|-6------------9-7-10------------9-7-6------------9-7-10-9-3--7--3-|
|-4-0000000000-7-5-8--0000000000-7-5-4-0000000000-7-5-8--7-1--5--1-|
pm  ..........        ..........       ..........

 Riff 1a
|------------------------------------------------------------------|
|------------------------------------------------------------------|
|------------------------------------------------------------------|
|-6------------9-7-10------------9-7-6------------9-7-10-9-3--7--3-|
|-6------------9-7-10------------9-7-6------------9-7-10-9-3--7--3-|
|-4------------7-5-8-------------7-5-4------------7-5-8--7-1--5--1-|

 Riff 2
|---------------------------------|
|---------------------------------|
|---------------------------------|
|---------------------------------|
|-------6-------6-------6-------6-|
|-44444---77777---55555---88888---|

Fill 1
|-----------------|
|-----------------|
|-----------------|
|-----------------|
|-------6-------6-|
|-44444---77777---|

 Riff 3
                                 3x
|----------------------------------|--------------------------------|
|*--------------------------------*|--------------------------------|
|----------------------------------|--------------------------------|
|-----7-555-----000----------------|-----7-555-----000--------------|
|*--7-------7-------2---------3-2-*|---7-------7-------2-----3br-2--|
|-5-----------8-------3-000-3------|-5-----------8-------3-0--------|

 Riff 4
|------------------------------------------------------------------|
|------------------------------------------------------------------|
|------------------------------------------------------------------|
|--------------------------55------------------------------5----5--|
|---7---7-8877-5---5-7---7---88-7---5-7---7-8877-5---5-7---3----5--|
|-5---5----------8-----5----------8-----5----------8-----5-3--3-3--|

 Fill 2
   *
|---------------|
|---------------|
|---------------|
|-(5)===-5----5-|
|-(5)===-3----5-|
|-(3)===-3--3-3-|

*held from Riff 4

 Riff 5
|--------------------------------0===----------5===--------------------|
|-1--1-1-1-1-1--1-1-1-1------------1=---1===-----5=--------------------|
|-2--2-2-2-2-0--0-0-0-0-2-2-0-2-----------2=---------------------------|
|-2--2-2-2-2-2--2-2-2-2-3-3-2-3-------2------2------0-0-0--------------|
|-0--0-0-0-0-3--3-3-3-3---------------0------3------2-2-2-2-3----------|
|---------------------------------------------------------3-5--5-5-5-5-|
                                                             pm. . . .
 Riff 6
|------------------------|
|------------------------|
|------------------------|
|-0-0---2----------0-0---|
|-2-2-2-3--3-3-3-3-2-2-2-|
|-----3----------------3-|
         pm. . . .

 Riff 7
|-----------------------------------------------|
|-----------------------------------------------|
|----------------7-555--------------------------|
|-7------------7-------7-7----------10----------|
|-7----------5-----------7----------10-9-10-9-5-|
|-5--5-555-5-------------5--5-555-5-8--7-8--7-3-|
pm   . ... . . . . ... .    . ... .    . .  . .

 Riff 8 (Under Solo)
|------------------------------------------------|
|------------------------------------------------|
|------------------------------------------------|
|-7----------2p0---------3-----------2p0---------|
|-7--------------3p0-----3---------------3p0-----|
|-5--5-555-5---------3p0-1-111-1-1-1---------3p0-|
pm   . ... .               ... . . .

 Riff 8 (cont'd)
|--------------------------------------------------|
|--------------------------------------------------|
|--------------------------------------------------|
|-5-----------2p0---------7------------------------|
|-5---------------3p0-----7---------------9-10-9-5-|
|-3-333-3-3-3---------3p0-5-555-5-5-5-8b~-7-8--7-3-|
pm  ... . . .               ... . . .     . .  . .

 Guitar Solo
|------------------------------------------------------------------------|
|------------------------------------------------------------------------|
|---9-9-7-5-4~~-2-5-2--------------------------------------------------5-|
|-2/7-7-7-7-5~~-3---3-2~~-2\----2p0--------------------2-2-2-2p0-----7---|
|----------------------------3------3p2-0--2p0-----0-3-----------0-------|
|----------------------------------------------3p0-----------------------|

|-----------------12-10-8-7h8p7----7~------------------------------------------------------|
|-------------------------------10---------------------------------------------------------|
|-9-7-5-4h5p4---4~--------------------9-7--------------------------------------------------|
|-------------7---------------------------10-xx7----7--7-9-7---7-7-7-10b-7-10b-7-10b-7-10b-|
|-------------------------------------------------7----------0-----------------------------|
|------------------------------------------------------------------------------------------|

Much of this section is, unfortunately, indistinguishable - due to the sloppy
style of playing and the volume of the riff. This was as close as I could manage.
If all else fails - improvise!
|------------------------------------------------------------------------|
|------------------------------------------------------------------------|
|------------------------------------------------------------------------|
|-5-7-5-3-5-7-5-3-7-9-7-5-9-10-9-7-7-9-7-5-5-7-5-------------------------|
|------------------------------------------------7-5-7-5-3-5b------------|
|---------------------------------------------------------------8-7-8b---|

|-----------------------------------------|
|-----------------------------------------|
|-----------------------------------------|
|-----------------------------------------|
|---------55--7755------------------------|
|-8-7-8877--77----88775533-5-7-5-8-7-5-7b-|

|------------------------------------------------------|
|------------------------------------------------------|
|-9~-14-12\9-7br-7~-4h5p4---4-4---4h5p4-4~-5----4-4-5~-|
|-------------------------7-----6-------------5-5-5-7~-|
|------------------------------------------------------|
|------------------------------------------------------|

 Final Chord
|-----|
|-----|
|-----|
|-7---|
|-7---|
|-5---|

Structure
Riff 1 x1 w/Riff 1a
Riff 1 x3
Riff 2 x4
Riff 1 x4
Riff 2 x3
Fill 1 x1
Riff 3 x1
Riff 4 x2
Riff 3 x1
Riff 4 x4
Fill 2 x1
Riff 5 x2
Riff 6 x1
Riff 7 x4
Riff 5 x2
Riff 6 x1
Riff 7 x4
Solo w/Riff 8 x4
Riff 3 x1
Riff 4 x4
Fill 2 x1
Riff 5 x2
Riff 6 x1
Riff 7 x4
Final Chord
Добавлено: 25.04.2012
Другие материалы по этой песне:
  • Аккорды и текст

Страница создана 06.04.2012
http://primanota.ru/arghoslent/heirs-to-perdition-chords.htm
Привет, Гость.
Предлагаем пройти революционный курс по гитаре.
Подарок от PrimaNota.Ru, забирай!