PrimaNota.ru - самый крупный в мире бесплатный архив песенных текстов, аккордов, табулатур и нот


Arghoslent - Flogging The Cargo - текст песни, таба, видео

Регистрация Запомнить меня
Войти через:  Facebook Google Twitter Vk Yandex Mail.ru

Arghoslent - Flogging The Cargo - текст песни, таба, видео

Печатать
Просмотров: 144
Уроки эстрадного вокала в Санкт-Петербурге
Band:  Arghoslent
Album: Incorrigble Bigotry
Song:  Flogging the Cargo

www.arghoslent.cjb.net

Tabbed by: Zach Kraemer

Copyright (c) Drakkar Productions 2002

.  - palm mute           /  - slide up to
\  - slide down to       ~  - vibrato
h  - hammer on           b  - Bend
p  - pull off            () - ghost/sustained note
[] - natural harmonic

Tuning: DGCFAD

 Riff 1
|-----------------------------------------------------------------------------------|
|-----------------------------------------------------------------------------------|
|-----------------------------------------------------------------------------------|
|-2-3-5-7-7777-5-10-10101010-5-7-5-5555555-2-3-5-7-7777-5-10-10101010-5-7-5-3333333-|
|-0-1-3-5-5555-3-8--8-8-8-8--3-5-3-3333333-0-1-3-5-5555-3-8--8-8-8-8--3-5-1-1111111-|
|-----------------------------------------------------------------------------------|

Guitar Solo
|-------------------------------------------------------------|
|--------------------14h15--14--------17-17h18--15----15------|
|-<17b>~~~~-<15>\--------------15-14---------------17----17~~-|
|-------------------------------------------------------------|
|-------------------------------------------------------------|
|-------------------------------------------------------------|

|-----------------------------------------------------------------------------|
|-----------------------------------------------------------------------------|
|-10-12-10----10-14-10----10-12-10----10-14-10----10-12-10----10-14-10-10-----|
|----------12----------12----------12----------12----------12-------------12~-|
|-----------------------------------------------------------------------------|
|-----------------------------------------------------------------------------|

|----------------------------------------|
|----------------------------------------|
|-/7--10-7-------------------------------|
|----------10-7--7-8-7h8p7------7--------|
|--------------------------10-8---8-7----|
|-------------------------------------10-|

|------------------------------------------------------------------------------------------------|
|------------------------------------------------------------------------------------------------|
|---10----10----------------10-----------------10-------------10-10------------------------------|
|12----12----12-10-10-12-14----14-12-10-12--14----14-12-10-12-------14-12-10/12-14-15-10/12-14-15|
|------------------------------------------------------------------------------------------------|
|------------------------------------------------------------------------------------------------|

|-------------------------------------------------------------------------------------------|
|-------------------------------------------------------------------------------------------|
|-------------------------------------------------------------------------------12-------12-|
|-10/12-14-15-10/12-14-15-10/12-12-14-12\10-10-10-14-14-12-10-10/12-12-14-15-14----15-15----|
|-------------------------------------------------------------------------------------------|
|-------------------------------------------------------------------------------------------|

|--------------------------------------------------------------|
|-15\-----------------------------w/bar------lift-&-dive-w/bar-|
|-14\---19br~~~---------------21\17\\\----[3]/-\\\\\\----------|
|--------------------------------------------------------------|
|-------------------dive w/bar---------------------------------|
|-----------------0/\\\\-////----------------------------------|

 Fill 1
|---------------------------|
|---------------------------|
|---------------------------|
|-7-5-3-2-----3-2-----------|
|-5-3-1-0-----1-0-5-3---5---|
|-----------------3-1---3---|

 Riff 2
|------------------------------------------------------------------|
|------------------------------------------------------------------|
|------------------------------------------------------------------|
|-------------------------5-------7----8-9----------10-7h10p7------|
|-3-----3----3--------------5h7---5----6-7-10-777-8-----------10p7-|
|-5-555-5--5-5-00-3-5-333-------5-5-55-6-7-------------------------|
pm  ...    .   ..     ...           ..        .. 

 Fill 2
|------------------------------------------------------------------|
|------------------------------------------------------------------|
|------------------------------------------------------------------|
|---------------------------------7----8-9-------------------------|
|-3\------------------------------5----6-7-------------------------|
|-5\------------------------------5-55-6-7-------------------------|
pm                                  ..

 Riff 3
|--------------------------------------------------------|
|--------------------------------------------------------|
|-9------------------------------------------------------|
|-9-----------/10---9---7-----------------/9---7---------|
|-7--------10---------------/10--------10----------/10---|
|-----7-10--------0---0---0-------7-10-------0---0-----0-|

 Riff 4
|-------------------------------------------------------|
|-------------------------------------------------------|
|-------------/10---9---7----------------/9---7---------|
|-7~~------10---------------/10-------10----------/10---|
|-----7-10--------0---0---0------7-10-------0---0-----0-|
|-------------------------------------------------------|

 Fill 3
|--------------|
|--------------|
|-9------------|
|--------------|
|--------------|
|--------------|
|
|Fill 3a
|--------------|
|--------------|
|--------------|
|--------------|
|-0------------|
|--------------|

 Riff 5
|---------------------------------------------------------------|
|---------------------------------------------------------------|
|---------------------------------------------------------------|
|---------------------------------------------------------------|
|-00000000000000000000000000000000000000000000000000000000-3b---|
|---------------------------------------------------------------|

 Fill 4
|--------------------------------|
|--------------------------------|
|--------------------------------|
|-2---5-2---2-2-2---2-2-2--------|
|-0---3-0---0-0-0---0-0-0---3b---|
|--------------------------------|
pm.     .   . . .   . . .

 Riff 6
|-------------------|
|-------------------|
|-------------------|
|-------------------|
|-000000-7-6-0000-3-|
|-------------------|
pm......     ....

 Riff 7
|-------------------------|
|-------------------------|
|-------------------------|
|-------------------------|
|-0-0-7-0-6-0-0-0-5-0-3-0-|
|-------------------------|
pm. . . . . . . . . . . .


Structure
Riff 1 x5  - Guitar Solo begins halfway through first time.
Fill 1 x1
Riff 2 x1 w/Fill 2
Riff 2 x3
Riff 3 x1
Riff 2 x4
Riff 3 x1
Riff 4 x1
Riff 3 x1
Riff 4 x1
Fills 3 & 3a x1 
Riff 5 x1
Riff 6 x4 w/Fill 4
Riff 6 x12
Riff 7 x4
Riff 6 x8
Riff 7 x4
Riff 6 x8
Riff 7 x4
Riff 1 x5
Fill 1 x1
Добавлено: 10.03.2012
Другие материалы по этой песне:

Страница создана 10.03.2012
http://primanota.ru/arghoslent/flogging-the-cargo-chords.htm
Привет, Гость.
Предлагаем пройти революционный курс по гитаре.
Подарок от PrimaNota.Ru, забирай!