PrimaNota.ru - самый крупный в мире бесплатный архив песенных текстов, аккордов, табулатур и нот


Arghoslent - Archaic Invincibility - текст песни, таба, видео

Регистрация Запомнить меня
Войти через:  Facebook Google Twitter Vk Yandex Mail.ru

Arghoslent - Archaic Invincibility - текст песни, таба, видео

Печатать
Просмотров: 266
Band:  Arghoslent
Album: Incorrigble Bigotry
Song:  Archaic Invincibility

www.arghoslent.cjb.net

Tabbed by: Zach Kraemer

Copyright (c) Drakkar Productions 2002

.  - palm mute           b  - Bend
/  - slide up to         r  - release bend
\  - slide down to       b~ - vibrato bend
~  - vibrato             =  - let ring
h  - hammer on           () - ghost note
p  - pull off

[] - natural harmonic

Tuning Whole Step Down DGCFAD

 Riff 1
|-----------------------------------------------------------------------|
|-----------------------------------------------------------------------|
|-----------------------------------------------------------------------|
|-----------------------------------------------------------------------|
|---8-7-5-----3--2--3----8-7-5-----3--2--0----8-7-5-----3--2--3---0--2--|
|-5-------8-7-5--3--5--5-------8-7-5--3--1--5-------8-7-5--3--5---1--3--|
  " " " " " " "  "  "  " " " " " " "  "  "  " " " " " " "  "  "   "  "

 Riff 2
 Gtr 1
|-------------------------------------------------------|
|-------------------------------------------------------|
|-------------------------------------------------------|
|----------------------------7--------------------------|
|-3------3------3--------2---5------3------3--------2---|
|-5--5-5-5--5-5-5--0h3h5---3-5--5-5-5--5-5-5--0h3h5---3-|
|  pm. .    . .                 . .    . .
|Riff 2a
|Gtr 2
|-------------------------------------------------------|
|-------------------------------------------------------|
|-------------------------------------------------------|
|----------------------------7--------------------------|
|-3------3------3--------2---5------3------3--------2---|
|-5--5-5-5--5-5-5--0h3h5---3-5--5-5-5--5-5-5--0h3h5---3-|
   pm. .    . .                 . .    . .


 Riff 2 (cont'd)
|--------------------------------------------------|
|--------------------------------------------------|
|--------------------------------------------------|
|--------------------------------------------------|
|----------------------------------------------2---|
|-8-7-5~~---10-8-7~~---8-7-5~~---7~~---7-0h3h5---3-|
|
|Riff 2a (cont'd)
|--------------------------------------------------|
|--------------------------------------------------|
|--------------------------------------------------|
|--------------------------------------------------|
|-3-3-3-----5--5-5-----3-3-3-----5-----2-------2---|
|-1-1-1-0-0-3--3-3-0-0-1-1-1-0-0-3-----0-0h3h5---3-|
pm      . .        . .       . .

 Guitar Solo
|------------------------------------------------------------------------|
|------------------------------------------------------------------------|
|--------------------------------------------4/9-----7----10~~\(9)-7/9~~-|
|-/10-9-7-----------------------------7---5~------10----9----------------|
|---------/8-7---8-(0)------------5-----0--------------------------------|
|----------------------8-7-5~~~-7---8------------------------------------|

|----------5-5-3~-5-5-/7~-8~---10-8h10p8-7----7--------------------------------|
|-5--------5-5-3~-5-5-/7~-8~---------------10---10-8-7-8~-------8---7---7------|
|-7b-7br-5------------------------------------------------9-9-9---9---7---7~-9-|
|------------------------------------------------------------------------------|
|------------------------------------------------------------------------------|
|------------------------------------------------------------------------------|

|---------------------------------------------------|
|---------------------5~~6-5h6-5p6-5p6-5p6-5p6-5~~--|
|-----------------5-7-------------------------------|
|----------5-5h7~-----------------------------------|
|---------------------------------------------------|
|--------5------------------------------------------|

 Riff 3
|----------------------------------------------------------------------|
|----------------------------------------------------------------------|
|----------------------------------------------------------------------|
|----------------------------------------------------------------------|
|-3--2-3--5-7--5-7-[777777]-8---7-8---10-12--10-12-[12-12-12-12-12-12]-|
|-5--3-5--7-8--7-8----------10--8-10--12-13--12-13---------------------|
  "  " "  " "  " "          "   " "   "  "   "  "

 Riff 4
                                           3x
|------------------------------------------|----------------------|
|*----------------------------------------*|----------------------|
|------------------------------------------|----------------------|
|------------------------------------------|----------------------|
|*-7----------7----5----3--------3--------*|-7----------7----5----|
|--8-00881010-8-00-7-00-5-005577-5-000000--|-8-00881010-8-00-7-00-|
pm   ........   ..   ..   ......   ......      ........   ..   ..


NOTE: Riff 5 is merely a small variation on Riff 2. It is indentical, except that
it replaces the final phrase with a rest.

 Riff 5
 Gtr 1
|-------------------------------------------------------|
|-------------------------------------------------------|
|-------------------------------------------------------|
|----------------------------7--------------------------|
|-3------3------3--------2---5------3------3--------2---|
|-5--5-5-5--5-5-5--0h3h5---3-5--5-5-5--5-5-5--0h3h5---3-|
|  pm. .    . .                 . .    . .
|Riff 5a
|Gtr 2
|-------------------------------------------------------|
|-------------------------------------------------------|
|-------------------------------------------------------|
|----------------------------7--------------------------|
|-3------3------3--------2---5------3------3--------2---|
|-5--5-5-5--5-5-5--0h3h5---3-5--5-5-5--5-5-5--0h3h5---3-|
   pm. .    . .                 . .    . .

 Riff 5 (cont'd)
|----------------------------------------|
|----------------------------------------|
|----------------------------------------|
|----------------------------------------|
|----------------------------------------|
|-8-7-5~~---10-8-7~~---8-7-5~~---7~~---7-|
|
|Riff 5a (cont'd)
|----------------------------------------|
|----------------------------------------|
|----------------------------------------|
|----------------------------------------|
|-3-3-3-----5--5-5-----3-3-3-----5-----2-|
|-1-1-1-0-0-3--3-3-0-0-1-1-1-0-0-3-----0-|
pm      . .        . .       . .

 Riff 6
|---------------------------------------------------|
|---------------------------------------------------|
|---------------------------------------------------|
|-7---7h9---9h10---10h12---9---9h10---10h12---12h14-|
|-0-000---000----000-----000-000----000-----000-----|
|---------------------------------------------------|
pm  ...   ...    ...     ... ...    ...     ...

 Riff 6 (cont'd)
|---------------------------------------------------------|
|---------------------------------------------------------|
|---------------------------------------------------------|
|-10---10h12---12h14---14h15---12---12h14---14h15---15h17-|
|-0--000-----000-----000-----000--000-----000-----000-----|
|---------------------------------------------------------|
pm   ...     ...     ...     ...  ...     ...     ...

 Riff 7
|---------------------------------------------------|
|---------------------------------------------------|
|---------------------------------------------------|
|---------------------------------------------------|
|-7-----------------------9-------------------------|
|-5-005/7-007/8-008/10-00-7-007/8-008/10-0010/12-00-|
pm  ..    ..    ..     ..   ..    ..     ..      ..

 Riff 7 (cont'd)
|------------------------------------------------------------|
|------------------------------------------------------------|
|------------------------------------------------------------|
|------------------------------------------------------------|
|-10---------------------------12----------------------------|
|-8--008/10-0010/12-0012/13-00-10-0010/12-0012/13-0013/15-00-|
pm   ..     ..      ..      ..    ..      ..      ..      ..

Structure:
Riff 1 x4
Riffs 2 & 2a x3
Solo w/Riffs 2 & 2a x3
Riff 3 x4
Riff 4 x1
Riff 3 x4
Riff 4 x1
Riffs 5 & 5a x1
Riff 6 x1
Riff 6 x1 w/ Fill 1
Riff 6 x2
Riff 7 x2
Riff 6 x2
Riffs 2 & 2a x1
Riff 3 x4
Riff 4
Добавлено: 27.05.2012
Другие материалы по этой песне:

Страница создана 04.03.2012
http://primanota.ru/arghoslent/archaic-invincibility-chords.htm
Привет, Гость.
Предлагаем пройти революционный курс по гитаре.
Подарок от PrimaNota.Ru, забирай!