PrimaNota.ru - самый крупный в мире бесплатный архив песенных текстов, аккордов, табулатур и нот


Argent - Hold Your Head Up - аккорды и текст, таба, бас-таба, видео

Регистрация Запомнить меня
Войти через:  Facebook Google Twitter Vk Yandex Mail.ru

Argent - Hold Your Head Up - аккорды и текст, таба, бас-таба, видео

Печатать
Просмотров: 240
Уроки эстрадного вокала в Санкт-Петербурге
Авторы: Rod Argent, Chris White

Hold Your Head Up
Argent
Artist: Argent
Song: Hold your head up
Tabbed by: DJ
2nd June 2013

Tuning: Standard

******************************************************************************** 
   Dsus4
e|---3-------------|-----------------|
B|---3-------------|-----------------|
G|---2-------------|-----------------|
D|---0-------------|-----------------|
A|-----------------|-----------------|
E|-----------------|-----------------|

  Dsus2
e|--0--0--0--------|--0--0--0--------|--0--0--0--------|--0--0--0--------|
B|--3--3--3--------|--3--3--3--------|--3--3--3--------|--3--3--3--------|
G|--2--2--2--------|--2--2--2--------|--2--2--2--------|--2--2--2--------|
D|--0--0--0--------|--0--0--0--------|--0--0--0--------|--0--0--0--------|
A|-----------0--3--|-----------0--3--|-----------0--3--|-----------0--3--|
E|-----------------|-----------------|-----------------|-----------------|


(Main riff)
  Dsus4     D       D9sus4   D7sus4   Dsus4    D  D7sus4  Cmaj9/D   D7sus2
e|--3----3--2------|--3----3--3------|--3---3--2----3------7--7--|----5-----| (Twice)
B|--3----3--3------|--5----5--3------|--3---3--3----3------5--5--|----5-----|
G|--2----2--2------|--5----5--5------|--2---2--2----5------5--5--|----5-----|
D|--0----0--0------|--0----0--0------|--0---0--0----0------0--0--|----0-----|
A|-----------------|-----------------|---------------------------|----------|
E|-----------------|-----------------|---------------------------|----------|


Dsus4  D            D9sus4  D7sus4            Dsus4     D    D7sus4  Cmaj9/D    D7sus2
         And if it's bad,         don't let it get you down, you---    can make  it,

Dsus4  D           D9sus4  D7sus4               Dsus4     D   D7sus4  Cmaj9/D   D7sus2
         And if it hurts,         don't let them see you cry, you---   can take   it!


Dsus2              F6(add4)  Dsus2              F6(add4)
 Hold your head up, woman!   Hold your head up, woman!

Dsus2               F6(add4)  Esus4           E
 Hold your head up, woman!    Hold your head high-----!


  Dsus2
e|--0--0--0--------|--0--0--0--------|--0--0--0--------|--0--0--0--------|
B|--3--3--3--------|--3--3--3--------|--3--3--3--------|--3--3--3--------|
G|--2--2--2--------|--2--2--2--------|--2--2--2--------|--2--2--2--------|
D|--0--0--0--------|--0--0--0--------|--0--0--0--------|--0--0--0--------|
A|-----------0--3--|-----------0--3--|-----------0--3--|-----------0--3--|
E|-----------------|-----------------|-----------------|-----------------|


Dsus4  D             D9sus4  D7sus4               Dsus4       D  D7sus4  Cmaj9/D   D7sus2
         And if they stare,         just let them burn their eyes  on      you mov - ing,

Dsus4  D             D9sus4  D7sus4              Dsus4     D   D7sus4  Cmaj9/D     D7sus2
         And if they shout,         don't let it change a thing that    you're do - ing!


Dsus2              F6(add4)  Dsus2              F6(add4)
 Hold your head up, woman!   Hold your head up, woman!

Dsus2               F6(add4)  Esus4           E
 Hold your head up, woman!    Hold your head high-----!


  Dsus2
e|--0--0--0--------|--0--0--0--------|--0--0--0--------|--0--0--0--------|
B|--3--3--3--------|--3--3--3--------|--3--3--3--------|--3--3--3--------|
G|--2--2--2--------|--2--2--2--------|--2--2--2--------|--2--2--2--------|
D|--0--0--0--------|--0--0--0--------|--0--0--0--------|--0--0--0--------|
A|-----------0--3--|-----------0--3--|-----------0--3--|-----------0--3--|
E|-----------------|-----------------|-----------------|-----------------|


  Dsus2
  Hold your head up!         Hold your head up!
e|--0---------0--0---------|--0----------0--0---------| (Twice)
B|--3---------3--3---------|--3----------3--3---------|
G|--2---------2--2---------|--2----------2--2---------|
D|--0---------0--0---------|--0----------0--0---------|
A|-------------------0--3--|--------------------0--3--|
E|-------------------------|--------------------------|


  D                 C/D                 Bb/D                Ab/D
Hold your head up!  Hold your head up!  Hold your head up!  Hold your head up!

  G                 E7                  Cadd2               Amaj4         
Hold your head up!  Hold your head up!  Hold your head up!  Hold your head up!

F6(add4)    
Hold your head up!


*Dsus2             *F6(add4)  *Dsus2             *F6(add4)
 Hold your head up, woman!     Hold your head up, woman!

*Dsus2             *F6(add4)  Esus4            E
 Hold your head up, woman!    Hold your head high-----!


Dsus4  D             D9sus4  D7sus4               Dsus4       D  D7sus4  Cmaj9/D   D7sus2
         And if they stare,         just let them burn their eyes  on      you mov - ing,

Dsus4  D             D9sus4  D7sus4              Dsus4     D   D7sus4  Cmaj9/D     D7sus2
         And if they shout,         don't let it change a thing that    you're do - ing!


*Dsus2             *F6(add4) *Dsus2             *F6(add4)
 Hold your head up, woman!    Hold your head up, woman!

*Dsus2            *F6(add4)  *Dsus2             *F6(add4)
 Hold your head up, woman!    Hold your head up, woman!


(Suggestion for coda)
 Esus4      E
|  /__/  /__/  /  / ||
   ^  ^  ^  ^

******************************************************************************************

*Just for variety, I use a different inversion of the chords for the latter choruses.
Either set of shapes work, so use what you feel comfortable playing.

Dsus4   =  xx0233   F6(add4)=  100311   Bb/D  =  xx0331   *Dsus2   =  557755
Dsus2   =  xx0230   Esus4   =  022200   Ab/D  =  xx0544   *F6(add4)=  xx0566
D9sus4  =  xx0553   E       =  022100   G     =  320033
D7sus4  =  xx0533   D       =  xx0775   E7    =  020100
Cmaj9/D =  xx0557   C/D     =  xx0553   Cadd2 =  x30010
D7sus2  =  xx0555                       Amaj4 =  x00220
Добавлено: 09.09.2013
Другие материалы по этой песне:

Страница создана 24.04.2012
http://primanota.ru/argent/hold-your-head-up-chords.htm
Привет, Гость.
Предлагаем пройти революционный курс по гитаре.
Подарок от PrimaNota.Ru, забирай!