PrimaNota.ru - самый крупный в мире бесплатный архив песенных текстов, аккордов, табулатур и нот


Arena - The Eyes Of Lara Moon - текст песни, таба, видео

Регистрация Запомнить меня
Войти через:  Facebook Google Twitter Vk Yandex Mail.ru

Arena - The Eyes Of Lara Moon - текст песни, таба, видео

Печатать
Просмотров: 227
Авторы музыки: Clive Nolan, Mick Pointer, John Mitchell
Авторы текста: Clive Nolan
                                          Artist - Arena
                                         ****************
                                   Song - The Eyes Of Lara Moon
                                  ******************************
                                       Album - Peppers Ghost
                                      ***********************
                                       Tabbed By - Ayreon77
                                      **********************

Acoustic Strumming
INTRO - A Dm Eb   A Dm G   A Dm Eb   A Dm 
****** 

-----------------------------------------------
VERSE 1
********
A          Dm    Eb  A            Dm     G
There in a dream  -  More than it seems
A        Dm    Eb              A            Dm
A Morbid theme  -  Through the eyes of Lara Moon

-----------------------------------------------
VERSE 2
******** 
A             Dm    Eb  A          Dm     G
Back from the grave  -  A twilight state
A             Dm   Eb              A            Dm
Help came too late  -  Through the Eyes of Lara Moon

-----------------------------------------------
VERSE 3
********
A            Dm     Bb  A         Dm      Bb
No chance to change  -  What came before
A             Dm   Eb              A            Dm
The senseless rage  -  Through the Eyes of Lara Moon


-----------------------------------------------
00:52
HEAVY CHORDS - Dm Bb X4
*************
-----------------------------------------------
01:05
GUITAR PICKING - Dm Bb X4
***************
 Guitar 1
 Dm              Bb                Dm              Bb
[-----0---------|-----------------|-----0---------|-----------------]
[---6---6-------|-----5-----5-----|---6---6-------|-----5-----5-----]
[-7-------7-----|---7---7-----7---|-7-------7-----|---7---7-----7---]
[-----------7-8-|-8-------8-----8-|-----------7-8-|-8-------8-----8-]
[-------------|-|-----------------|---------------|-----------------]
[-------------|when you do this note -------------|-----------------]
|             move to the next chord before hitting it              |
|Guitar 2                                                           |
[-----0---------|-----------------|-----0--8------------------------]
[---6-----------|-----------------|---6-----------------------------]
[-7-------------|-----------------|-7-------------------------------]
[---------------|-----------------|---------------------------------]
[---------------|-----------------|---------------------------------]
[---------------|-----------------|---------------------------------]


-----------------------------------------------
01:12
VERSE 4
********
A         Dm   Bb  A           Dm      Bb
And so we wait  -  Night after night
A             Dm   Eb              A            Dm
To share that fate  -  Through the Eyes of Lara Moon

-----------------------------------------------
VERSE 5
********
A          Dm     Bb  A           Dm        Bb
You saw it coming  -  But you did nothing
A             Dm       Eb              A            Dm
You just kept watching  -  Through the eyes of Lara Moon


-----------------------------------------------
01:37
HEAVY CHORDS - Dm Bb X4
*************
-----------------------------------------------
01:50
GUITAR PICKING - Dm Bb X4
***************
 Guitar 1
 Dm              Bb                Dm              Bb
[-----0---------|-----------------|-----0---------|-----------------]
[---6---6-------|-----5-----5-----|---6---6-------|-----5-----5-----]
[-7-------7-----|---7---7-----7---|-7-------7-----|---7---7-----7---]
[-----------7-8-|-8-------8-----8-|-----------7-8-|-8-------8-----8-]
[-------------|-|-----------------|---------------|-----------------]
[-------------|when you do this note -------------|-----------------]
|             move to the next chord before hitting it              |
|Guitar 2                                                           |
[-----0---------|-----------------|-----0--8------------------------]
[---6-----------|-----------------|---6-----------------------------]
[-7-------------|-----------------|-7-------------------------------]
[---------------|-----------------|---------------------------------]
[---------------|-----------------|---------------------------------]
[---------------|-----------------|---------------------------------]X2


-----------------------------------------------
02:03 PALM MUTE
PLAY THIS WITH THE BRIDGE BELOW
[------------------------------|------------------------------]
[------------------------------|------------------------------]
[------------------------------|------------------------------]
[---------------7--------------|---------------9--------------]
[-5-7-8--5-7-8----5--8-7-5-7-8-|-5-7-8--5-7-8----5--8-7-5-7-8-]
[------------------------------|------------------------------]


[------------------------------|-------------------------------------]
[------------------------------|--------------------------------10---]
[---------------5--------------|---------------6---------7-9-10----7-]
[------------------------------|-------------------------------------]
[-5-7-8--5-7-8----5--8-7-5-7-8-|-5-7-8--5-7-8----5--8-7--------------]
[------------------------------|-------------------------------------]X2
BRIDGE
*******
It's hard to fight
When you're struggling for breath
And it's hard to smile
Noble in the face of death
There's no defence
To quell a greater force of will
One desperate flight 
But needlessly their blood is spilt

-----------------------------------------------
02:30
GUITAR SOLO
************
 Guitar 1                p     h     s         h
[-21--21----21-21--21--19-17-17-19-19\14-14--14-17-------------]
[--------------------------------------------------15------h---]
[--------18-------------------------------------------14-14-16-]
[--------------------------------------------------------------]
[--------------------------------------------------------------]
[--------------------------------------------------------------]
|                                                              |
|Guitar 2 - Picking  OR you can strum it                       |
| A                    G                    Bm                 |
[-------5-------5----|-------3-------3----|-------2-------2----]
[-----5---5---5---6--|-----3---3---3---3--|-----3---3---3---3--]
[---6-------6--------|---4-------4--------|---4-------4--------]
[--------------------|--------------------|--------------------]
[--------------------|--------------------|--------------------]
[--------------------|--------------------|--------------------]


 Guitar 1                           b     s      h
[-----------------17-------21--21-21--19--\14--14-17---------h--p---------]
[---h--p---------------s-----------------------------15----14-17-14-15-17-]
[-16-19-16-18-19-----14\16------------------------------14----------------]
[-------------------------------------------------------------------------]
[-------------------------------------------------------------------------]
[-------------------------------------------------------------------------]
|                                                                         |
|Guitar 2 - Picking                                                       |
| G                 A                 G                   Bm              |
[-----3-------3---|-----5-------5---|-----3-------3-----|-----2-------2---]
[---3---3---3---3-|---5---5---5---6-|---3---3---3---3---|---3---3---3---3-]
[-4-------4-------|-6-------6-------|-4-------4-------4-|-4-------4-------]
[-----------------|-----------------|-------------------|-----------------]
[-----------------|-----------------|-------------------|-----------------]
[-----------------|-----------------|-------------------|-----------------]


 Guitar 1
[---h--p------------]
[-14-17-14-15-17----]
[----------------14-]
[-------------------]
[-------------------]
[-------------------]
|                   |
|Guitar 2 - Picking |
| A                 |
[-----5-------5-----]
[---5---5---5---6---]
[-6-------6---------]
[-------------------]
[-------------------]
[-------------------]


-----------------------------------------------
02:57 PALM MUTE
PLAY THIS WITH THE BRIDGE BELOW
[------------------------------|------------------------------]
[------------------------------|------------------------------]
[------------------------------|------------------------------]
[---------------7--------------|---------------9--------------]
[-5-7-8--5-7-8----5--8-7-5-7-8-|-5-7-8--5-7-8----5--8-7-5-7-8-]
[------------------------------|------------------------------]


[------------------------------|-------------------------------------]
[------------------------------|--------------------------------10---]
[---------------5--------------|---------------6---------7-9-10----7-]
[------------------------------|-------------------------------------]
[-5-7-8--5-7-8----5--8-7-5-7-8-|-5-7-8--5-7-8----5--8-7--------------]
[------------------------------|-------------------------------------]X2
BRIDGE
*******
Endure the bleakest days
Light the visions crowding in
Identify the one to blame
Expose the guilty and the sinners
Vocation holds us here
Even to the end of days
There's no inaction
That will feed the hungry flames

-----------------------------------------------
03:23
HEAVY SOUNDING GUITAR

PLAY THIS THROUGHOUT THE VERSES BELOW
[------------------|------------------]
[------------------|------------------]
[------------------|------------------]
[------------------|------------------]
[---4---5--5-------|---4---5--5-------]
[-5---5------3-5-6-|-5---5------3-5-6-]


[------------------|---------------]
[------------------|---------------]
[------------------|---------------]
[------------------|-------------s-]
[---4---5--5-------|---4---5--5-5\-]
[-5---5------3-5-6-|-5---5---------]X3

VERSE 6
********
A         Dm   Bb  A           Dm      Bb
And so we wait  -  Night after night
A             Dm   Eb              A            Dm
To share that fate  -  Through the Eyes of Lara Moon

-----------------------------------------------
VERSE 7
********
A          Dm   Bb A          Dm      Bb
Nowhere to hide - Night after night
A       Dm     Eb            A            Dm
So dead inside - Through the Eyes of Lara Moon

-----------------------------------------------
REPEAT VERSE 6 2 MORE TIMES
-----------------------------------------------


A Dm Eb   A Dm G   A Dm Eb


Through the Eyes of Lara Moon


This is a cool track, and a great solo. Enjoy..............
Добавлено: 03.09.2013
Другие материалы по этой песне:
  • Аккорды и текст

Страница создана 09.07.2012
http://primanota.ru/arena/the-eyes-of-lara-moon-chords.htm
Привет, Гость.
Предлагаем пройти революционный курс по гитаре.
Подарок от PrimaNota.Ru, забирай!