PrimaNota.ru - самый крупный в мире бесплатный архив песенных текстов, аккордов, табулатур и нот


Arena - Smoke And Mirrors - текст песни, таба, видео

Регистрация Запомнить меня
Войти через:  Facebook Google Twitter Vk Yandex Mail.ru

Arena - Smoke And Mirrors - текст песни, таба, видео

Печатать
Просмотров: 113
Авторы музыки: Clive Nolan, Mick Pointer, John Mitchell
Авторы текста: Clive Nolan
-------------------------------------------------------------------------------
                            Arena - Smoke and Mirrors 
-------------------------------------------------------------------------------
Tabbed by: guiguig
E-mail:

Tuning: Normal

Intro (use delay)          x3
e|---------------------------|
B|---------------------------|
G|------4-/-5----5---5-------|
D|---------------------------|
A|----2--------3---0---------|
E|-0--------0----------------|

e|--------------------------------------------------------|
B|--------------------------------------------------------|
G|------4-/-5---5---5-\-----------------------------------|
D|--------------------------------------------------------|
A|---2--------3---0----------5----5-5---------------------|
E|-0--------0----------------2----2-3-\2p0----------------|

Guitar 1                                                                 2x
e|---------------------------------------------------------------------------|
B|---------------------------------------------------------------------------|
G|------0-----0-------------------0-----0------0-----------------------------|
D|----2-----4-------------------2-----4------5-------2---5-5-----------------|
A|--3-----5------0-let ring---3-----5------7-----\---0---2-3-----------------|
E|---------------------------------------------------------------------------|

Guitar 2                                                                 2x
e|------------------------------------------------------------+12----------|
B|--------------+5------+7------------------+5-----+7----------------------|
G|------------------+5-------------------------+5-----+7--+7---------------|
D|-------------------------------------------------------------------------|
A|-------------------------------------------------------------------------|
E|-------------------------------------------------------------------------|


Riff1                                                                    2x     
e|---------------------------------------------------------------------------|
B|---------------------------------------------------------------------------|
G|---------------------------------------------------------------------------|
D|-----5--2----------5-2-----------------------------------------------------|
A|--2--3--0------2---3-0-5---5----5-5---5------------------------------------|
E|--0------------0-------2---2----2-3---3------------------------------------|



Riff2 
Guitar 1                                                                2x
e|---------------------------------------------------------------------------|
B|---------------------------------------------------------------------------|
G|---------------------------------------------------------------------------|
D|--5---7---2------5--7--9---2----5--5---------------------------------------|
A|--3---5---0------3--5--7---0----2--3---------------------------------------|
E|---------------------------------------------------------------------------|

Guitar 2                                                                2x
e|--19-------------19--------------------------------------------------------|
B|------20-19-~-------20-19--15--15-17-~-------------------------------------|
G|---------------------------------------------------------------------------|
D|---------------------------------------------------------------------------|
A|---------------------------------------------------------------------------|
E|---------------------------------------------------------------------------|



Riff 3 (clean part)                                                     2x
e|---------------------------------------------------------------------------|
B|---------------------------------------------------------------------------|
G|-----0------0--------------------------------------------------------------|
D|---2------4--------------------------0-----0-------------------------------|
A|-3------5-----0 let ring ----------2-----4---------------------------------|
E|-----------------------------0-2-3-----5------0-let ring-------------------|



Riff1                                                                    2x     
e|---------------------------------------------------------------------------|
B|---------------------------------------------------------------------------|
G|---------------------------------------------------------------------------|
D|-----5--2----------5-2-----------------------------------------------------|
A|--2--3--0------2---3-0-5---5----5-5---5------------------------------------|
E|--0------------0-------2---2----2-3---3------------------------------------|



Riff2 (with variation)
Guitar 1                                                                
e|---------------------------------------------------------------------------|
B|---------------------------------------------------------------------------|
G|---------------------------------------------------------------------------|
D|--5---7---2------5--7--9---2-----------------------------------------------|
A|--3---5---0------3--5--7---0-----------------------------------------------|
E|---------------------------------------------------------------------------|

Guitar 2                                                                
e|--19-------------19--------------------------------------------------------|
B|------20-19-~-------20-19--15--15-17-~-------------------------------------|
G|---------------------------------------------------------------------------|
D|---------------------------------------------------------------------------|
A|---------------------------------------------------------------------------|
E|---------------------------------------------------------------------------|



Riff2 
Guitar 1                                                                
e|---------------------------------------------------------------------------|
B|---------------------------------------------------------------------------|
G|---------------------------------------------------------------------------|
D|--5---7---2------5--7--9---2----5--5---------------------------------------|
A|--3---5---0------3--5--7---0----2--3---------------------------------------|
E|---------------------------------------------------------------------------|

Guitar 2                                                                
e|--19-------------19--------------------------------------------------------|
B|------20-19-~-------20-19--15--15-17-~-------------------------------------|
G|---------------------------------------------------------------------------|
D|---------------------------------------------------------------------------|
A|---------------------------------------------------------------------------|
E|---------------------------------------------------------------------------|



Riff 4 (Chorus)
e|-------------------------------------------------------------------------------------|
B|-------------------------------------------------------------------------------------|
G|-7-----7-----7---7-----------------------3-----3-----3---3---2-----2-----2---2-------|
D|-7-----7-----7---7---3-----3-----3---3---3-----3-----3---3---2-----2-----2---2-------|
A|-5-5-5-5-5-5-5-5-5-5-3-----3-----3---3---1-1-1-1-1-1-1-1-1-1-0-0-0-0-0-0-0-0-0-0-----|
E|---------------------1-1-1-1-1-1-1-1-1-1---------------------------------------------|

e|-------------------------------------------------------------------------------------|
B|-------------------------------------------------------------------------------------|
G|-7-----7-----7---7-----------------------3-----3-----3---3---4-----4-----4---4-------|
D|-7-----7-----7---7---3-----3-----3---3---3-----3-----3---3---4-----4-----4---4-------|
A|-5-5-5-5-5-5-5-5-5-5-3-----3-----3---3---1-1-1-1-1-1-1-1-1-1-2-2-2-2-2-2-2-2-2-2-----|
E|---------------------1-1-1-1-1-1-1-1-1-1---------------------------------------------|



Riff1                                                                    2x     
e|---------------------------------------------------------------------------|
B|---------------------------------------------------------------------------|
G|---------------------------------------------------------------------------|
D|-----5--2----------5-2-----------------------------------------------------|
A|--2--3--0------2---3-0-5---5----5-5---5------------------------------------|
E|--0------------0-------2---2----2-3---3------------------------------------|



Riff2 (with variation)
Guitar 1                                                                
e|---------------------------------------------------------------------------|
B|---------------------------------------------------------------------------|
G|---------------------------------------------------------------------------|
D|--5---7---2------5--7--9---2-----------------------------------------------|
A|--3---5---0------3--5--7---0-----------------------------------------------|
E|---------------------------------------------------------------------------|

Guitar 2                                                                
e|--19-------------19--------------------------------------------------------|
B|------20-19-~-------20-19--15--15-17-~-------------------------------------|
G|---------------------------------------------------------------------------|
D|---------------------------------------------------------------------------|
A|---------------------------------------------------------------------------|
E|---------------------------------------------------------------------------|



Riff2 
Guitar 1                                                                
e|---------------------------------------------------------------------------|
B|---------------------------------------------------------------------------|
G|---------------------------------------------------------------------------|
D|--5---7---2------5--7--9---2----5--5---------------------------------------|
A|--3---5---0------3--5--7---0----2--3---------------------------------------|
E|---------------------------------------------------------------------------|

Guitar 2                                                                
e|--19-------------19--------------------------------------------------------|
B|------20-19-~-------20-19--15--15-17-~-------------------------------------|
G|---------------------------------------------------------------------------|
D|---------------------------------------------------------------------------|
A|---------------------------------------------------------------------------|
E|---------------------------------------------------------------------------|



Riff 4 (Chorus)
e|-------------------------------------------------------------------------------------|
B|-------------------------------------------------------------------------------------|
G|-7-----7-----7---7-----------------------3-----3-----3---3---2-----2-----2---2-------|
D|-7-----7-----7---7---3-----3-----3---3---3-----3-----3---3---2-----2-----2---2-------|
A|-5-5-5-5-5-5-5-5-5-5-3-----3-----3---3---1-1-1-1-1-1-1-1-1-1-0-0-0-0-0-0-0-0-0-0-----|
E|---------------------1-1-1-1-1-1-1-1-1-1---------------------------------------------|

e|--------------------------------------------------------------|
B|--------------------------------------------------------------|
G|-7-----7-----7---7-----------------------3-----3-----3---3----|
D|-7-----7-----7---7---3-----3-----3---3---3-----3-----3---3----|
A|-5-5-5-5-5-5-5-5-5-5-3-----3-----3---3---1-1-1-1-1-1-1-1-1-1--|
E|---------------------1-1-1-1-1-1-1-1-1-1----------------------|



Riff 5                                                  2x
e|------------------------------------------------------------|
B|------------------------------------------------------------|
G|--5---5-----5---5-------------------------------------------|
D|--5-5-5-5---5-5-5-5---8-7-8-7----8-7-8-7--------------------|
A|--3-5-3-5---3-5-3-5---8-7-8-7----8-7-8-7--------------------|
E|----3---3-----3---3---6-5-6-5----6-5-6-5--------------------|



Solo
e|--14b----14p12-14-12-14-~-----------14-~--------17-~-----------------------|
B|------------------------------12h15------12h15-----------------------------|
G|---------------------------------------------------------------------------|
D|---------------------------------------------------------------------------|
A|---------------------------------------------------------------------------|
E|---------------------------------------------------------------------------|

e|-15h17h19-~-p17p15\14h15h17-~p15p14\12h14h15-~p14p12\10h12h14-~p12p10\8h10h12-~10p8\7|
B|-------------------------------------------------------------------------------------|
G|-------------------------------------------------------------------------------------|
D|-------------------------------------------------------------------------------------|
A|-------------------------------------------------------------------------------------|
E|-------------------------------------------------------------------------------------|

e|-10p8p7--------------------------|
B|---------p8p7-8-~---7------------|
G|------------------------9b-------|
D|---------------------------------|
A|---------------------------------|
E|---------------------------------|

e|-19---------------------------19-------------------------------------------|
B|----20-19-~--15-17-~-------------20-19-~--15-17-17/20----17-~--------------|
G|------------------------------------------------------19-------------------|
D|---------------------------------------------------------------------------|
A|---------------------------------------------------------------------------|
E|---------------------------------------------------------------------------|

e|-19------------------15-----------19------------------------------------------|
B|----20-19-~-15-17-17----17-~---------20-19-~-20-15-15-19-15-------------------|
G|------------------------------------------------------------17-16-~-----------|
D|------------------------------------------------------------------------------|
A|------------------------------------------------------------------------------|
E|------------------------------------------------------------------------------|


Riff 5                                                  
e|------------------------------------------------------------|
B|------------------------------------------------------------|
G|--5---5-----5---5-------------------------------------------|
D|--5-5-5-5---5-5-5-5---8-7-8-7----8-7-8-7--------------------|
A|--3-5-3-5---3-5-3-5---8-7-8-7----8-7-8-7--------------------|
E|----3---3-----3---3---6-5-6-5----6-5-6-5--------------------|



Riff 4 (Chorus)                                                                 5x
e|-------------------------------------------------------------------------------------|
B|-------------------------------------------------------------------------------------|
G|-7-----7-----7---7-----------------------3-----3-----3---3---2-----2-----2---2-------|
D|-7-----7-----7---7---3-----3-----3---3---3-----3-----3---3---2-----2-----2---2-------|
A|-5-5-5-5-5-5-5-5-5-5-3-----3-----3---3---1-1-1-1-1-1-1-1-1-1-0-0-0-0-0-0-0-0-0-0-----|
E|---------------------1-1-1-1-1-1-1-1-1-1---------------------------------------------|

End
e|-------------|
B|-------------|
G|--7----------|
D|--7----------|
A|--5----------|
E|-------------|




************************************

| /   slide up
| \   slide down
| h   hammer-on
| p   pull-off
| ~   vibrato
| +  natural harmonic
| x   Mute note
| b   Bend
| pb  Pre-bend
| br  Bend release
| pbr Pre-bend release
| brb Bend release bend

************************************
Добавлено: 27.07.2015
Другие материалы по этой песне:

Страница создана 01.03.2012
http://primanota.ru/arena/smoke-and-mirrors-chords.htm
Привет, Гость.
Предлагаем пройти революционный курс по гитаре.
Подарок от PrimaNota.Ru, забирай!