PrimaNota.ru - самый крупный в мире бесплатный архив песенных текстов, аккордов, табулатур и нот


Arena - Serenity - таба, видео

Регистрация Запомнить меня
Войти через:  Facebook Google Twitter Vk Yandex Mail.ru

Arena - Serenity - таба, видео

Печатать
Просмотров: 114
                               Artist - Arena
                             ******************
                              Song - Serenity
                             *****************
                            Album - The Visitor
                           *********************


UB - Union Bend
 s - Slide
br - Bend Release
 b - bend
 X - Rake
 h - Hammer on
 p - Pull Off
PM - Palm Mute


   Rake
[----------------|---p---------|-------------------------------]
[--------h----s--|--8-7-8------|-------------------------------]
[------7---9--\--|----------s--|-----------s-------------------]
[----7-----------|--------9-\--|---s--5-7-7\9-5-7---5----h--s--]
[--X-------------|-------------|--5\7-------------7---5-5-7-\--]
[----------------|-------------|-------------------------------]


00:11                                                 h  p
[---------------|-------------s-------------------|--7-10-7--|---p-h---]
[---s-----------|---s--8-10-10\12-8-10---8----h---|----------|--8-7-8--]
[--7\9----p-----|--7\9-----------------9---7-7-9--|----------|---------]
[--7\9---5-4-5--|---------------------------------|----------|---------]
[---------------|---------------------------------|----------|---------]
[---------------|---------------------------------|----------|---------]


00:26    UB hold                     b       p     b   p
[--------12--12-----p------b--|-----14-14--14-12-14--14-12-----s--]
[--12-15-15--15---15-12-15----|--12------------------------15--\--]
[-----------------------------|-----------------------------------]
[-----------------------------|-----------------------------------]
[-----------------------------|-----------------------------------]
[-----------------------------|-----------------------------------]


00:37           b
[----s---15-17-17-15-17----15------h----s--]
[--15\17----------------17----15-15-17--\--]
[------------------------------------------]
[------------------------------------------]
[------------------------------------------]
[------------------------------------------]

00:42
   Rake
[--------------------b--19--br-------|-br------------------|------------]
[-------17-17-20-17-20-----20--20-20-|-19--15----15---s----|----p-------]
[----17------------------------------|--------14----14\16--|--12-11-12--]
[--X---------------------------------|---------------------|------------]
[------------------------------------|---------------------|------------]
[------------------------------------|---------------------|------------]


00:53
[-----------------b--19--br-----------|-br---------------]
[-------17-20-17-20-----20--20-20-20--|-19--15----15-----]
[----17-------------------------------|--------14----12--]
[--X----------------------------------|------------------]
[-------------------------------------|------------------]
[-------------------------------------|------------------]


01:00
[----------------------|-------------|---------|---------------b----]
[----p--h----s-----s---|-------------|---s--s--|--8------h-----8----]
[--12-11-12--\-9--9\7--|------7-9-9--|--7\9-\--|--7-9---7-9-9----9--]
[----------------------|----7--------|---------|------9-------------]
[----------------------|--X----------|---------|--------------------]
[----------------------|-------------|---------|--------------------]

01:14
   UB                      slow bend
[--------------------------|---b------|---br-------s--]
[--12-------------------s--|--15-~~~--|--18--15-17-\--]
[--14-12-14----12-14-14-\--|----------|---------------]
[-----------14-------------|----------|---------------]
[--------------------------|----------|---------------]
[--------------------------|----------|---------------]

01:22
    b                                      Rake
[--20--20-19-17----17-19----17-------s--|--------------------b---h---s--]
[---------------19-------19----17-17-\--|--------12-15-12-14---12-14-\--]
[---------------------------------------|-----12------------------------]
[---------------------------------------|--12---------------------------]
[---------------------------------------|-------------------------------]
[---------------------------------------|-------------------------------]


01:30
[---b----------------------------------|---------------------------]
[--14-12-14----12--b---------------h---|---h-p---------------------]
[-----------14----12-11-12-9-11-7-7-9--|--4-5-4-----s---s----p-h---]
[--------------------------------------|-----------4\5-5\7-\5-4-5--]
[--------------------------------------|---------2-----------------]
[--------------------------------------|---------------------------]

01:39
Extremly fast - This is what i could make out he was doing?
[-------------------------------------------------------------------]
[-------------h-h-p-p---------------h-h-p-p---------------h-h-p-p---]
[---h---h-h--4-5-7-5-4--p-p---h-h--4-5-7-5-4--p-p---h-h--4-5-7-5-4--]
[--4-5-4-5-7-----------7-5-4-4-5-7-----------7-5-4-4-5-7------------]
[-------------------------------------------------------------------]
[-------------------------------------------------------------------]



[--------------|-----------|-----------------b--19--br-----------]
[--------------|-----------|-------17-20-17-20-----20--20-20-20--]
[--h-----------|-----------|----17-------------------------------]
[-4-5--p----s--|-PM----h---|--X----------------------------------]
[-----7-5-7-\--|--7-5-5-7--|-------------------------------------]
[--------------|-----------|-------------------------------------]


01:50
[--br------------------|----h--p---s--|-----------------b--19--br----------]
[--19--15----15---s----|--12-14-12-\--|-------17-20-17-20-----20--20-20-20-]
[---------14----14\16--|--------------|----17------------------------------]
[----------------------|--------------|--X---------------------------------]
[----------------------|--------------|------------------------------------]
[----------------------|--------------|------------------------------------]


02:01
[--br---------------|------------|-------------]
[--19--15----15-----|----p--h----|------s---s--]
[---------14----12--|--12-11-12--|--9--9\7--\--]
[-------------------|------------|--9--9\7--\--]
[-------------------|------------|-------------]
[-------------------|------------|-------------]



Nice Tune........
Добавлено: 18.09.2013
Другие материалы по этой песне:
  • Аккорды и текст

Страница создана 17.09.2013
http://primanota.ru/arena/serenity-chords.htm
Привет, Гость.
Предлагаем пройти революционный курс по гитаре.
Подарок от PrimaNota.Ru, забирай!