PrimaNota.ru - самый крупный в мире бесплатный архив песенных текстов, аккордов, табулатур и нот


Arena - Bedlam Fayre - текст песни, таба, видео

Регистрация Запомнить меня
Войти через:  Facebook Google Twitter Vk Yandex Mail.ru

Arena - Bedlam Fayre - текст песни, таба, видео

Печатать
Просмотров: 131
Авторы музыки: Clive Nolan, Mick Pointer, John Mitchell
Авторы текста: Clive Nolan
                                       Artist - Arena
                                      ****************
                                    Song - Bedlam Fayre
                                   *********************
                                   Album - Peppers Ghost
                                  ***********************
 h = hammer on
 p = pull off
 s = slide
 b = bend
br = bend reverse
 X = Scratch pleck down the string

Intro - Circus Music Playing
*****************************

00:32                      00:46                    01:00      
Section 1                  Section 2
**********                 **********
[-------------------------|-------------------------|----------------------]
[----repeat 4 times-------|----repeat 4 times-------|----------------------]
[-------------------------|-------------------------|----repeat-Section 1--]
[-------------------------|--------1-3---------1----|-------4 times--------]
[--------3-5---------3----|--1-3-4-------1-3-4------|----------------------]
[--3-5-6-------3-5-6---1--|----------------------4--|----------------------]

01:15    
[-----------|-----------|-----------|-----]
[--7--8-----|--7--8-----|--7--8-----|-----]
[--7--8--8--|--7--8--8--|--7--8--8--|--5--]
[--7--8--8--|--7--8--8--|--7--8--8--|--5--]
[--5--6--8--|--5--6--8--|--5--6--8--|--5--]
[--------6--|--------6--|--------6--|--3--]


[---Section 2------------|--this is the fast run-|-------------------------]
[---repeat 3 1/2---------|-----------------------|-------------------------]
[------times-------------|--3-1---1--------------|----repeat section 1-----]
[--------1-3--------1----|------3---3-1-3-1------|---------4 times---------]
[--1-3-4------1-3-4------|------------------4-3--|-------------------------]
[---------------------4--|-----------------------|-------------------------]
Verse 1 - 01:26
****************
Play Section 2 Through Verse 1
*******************************
Crawling through the poison pool
 Hiding eyes with bleeding hands
 Every step another fool
 Kings and Queens of sand

Verse 2 - 01:40
****************
Play Section 1 Through Verse 2
*******************************
Over there an angry god
 Violent brow and negligence
 Making waves that can't be stopped
 Unafraid of consequence

01:53
small solo                                                    hold  hold
       br                               br  b  b  b       br  b |   b |   b
[-----16------s------------s--|-s------16--19-19-19--s---14--17-17-17-17-17]
[--14----14---\12-------12-\--|-\14-14---------------\12-------------------]
[-----------------12-11-------|--------------------------------------------]
[-----------------------------|--------------------------------------------]
[-----------------------------|--------------------------------------------]
[-----------------------------|--------------------------------------------]


No Guitar - 02:08
******************
Chosen faith's a lottery
 Heaven sent down forgeries
 Miracles and travesties
 Irreligion sows that seed

Small Solo
***********
 02:22                                                         hold  hold
       br                               br  b  b  b       br  b |   b |   b
[-----16------s------------s--|-s------16--19-19-19--s---14--17-17-17-17-17]
[--14----14---\12-------12-\--|-\14-14---------------\12-------------------]
[-----------------12-11-------|--------------------------------------------]
[-----------------------------|--------------------------------------------]
[-----------------------------|--------------------------------------------]
[-----------------------------|--------------------------------------------]

02:36     b     b            h  p  p        s
[--------16----16-16----16-16-17-16-14-16-16\--]
[--14-14----14---------------------------------]
[--------------------13------------------------]
[----------------------------------------------]
[----------------------------------------------]
[----------------------------------------------]

02:40     b     b       h  p     h  p     h  p    h  p   h p
[--------14----14-14--14-15-14-12-14-12-11-12-11-9-11-9-7-9-7--]
[--12-12----12--------------------------------------------------]
[---------------------------------------------------------------]
[---------------------------------------------------------------]
[---------------------------------------------------------------]
[---------------------------------------------------------------]

                                                        br   b hold note
[----s---------------s---------------------------|-----14---17----\--]
[--12\14-14-14-14--14\12-----s---------------s---|--12---------------]
[--------------------------11\13-13-13-13--13\11-|-------------------]
[------------------------------------------------|-------------------]
[------------------------------------------------|-------------------]
[------------------------------------------------|-------------------]


No Guitar - 02:50
******************
Staring through the Judas Hole
 See what I can see
 Every covenant of souls
 Drum roll payments paid to me

03:04
Section 3 
**********                
[------------------------]
[----repeat 4 times------]
[------------------------]
[--------3-5--------3----]
[--3-5-6------3-5-6---1--]
[------------------------]

Chourus - 03:04
****************
Play Section 3 Through Chourus
*******************************
Bethlehem to Bedlam Fayre
No one helps, no one cares
Let the people mock and stare
See them run around, around, around

03:19
[-----------|-----------|-----------|-----]
[--7--8-----|--7--8-----|--7--8-----|-----]
[--7--8--8--|--7--8--8--|--7--8--8--|--5--]
[--7--8--8--|--7--8--8--|--7--8--8--|--5--]
[--5--6--8--|--5--6--8--|--5--6--8--|--5--]
[--------6--|--------6--|--------6--|--3--]

03:30
weird bit Constantly hit the chord - sounds like a flanger effect?
   D
[-----]
[--7--]
[--7--]
[--7--]
[--5--]
[-----]

This place - So far gone
 Darker than hell - A stagnant field of dreams
 That face - Speaks to me
 So much to say - But nothing's what it seems


03:50 not sure about these chords?
  Bb  C  B  D  Bb  C  B Abm
[----------------------------]
[--3--5--4--7---3--5--4------]
[--3--5--4--7---3--5--4--6---]
[--3--5--4--7---3--5--4--6---]
[--1--3--2--5---1--3--2--6---]
[------------------------4---]

 You're only human
Just mortal to me
 You're only human
Just an earthbound disease!


[-----------|-----------|-----------|-----]
[--7--8-----|--7--8-----|--7--8-----|-----]
[--7--8--8--|--7--8--8--|--7--8--8--|--5--]
[--7--8--8--|--7--8--8--|--7--8--8--|--5--]
[--5--6--8--|--5--6--8--|--5--6--8--|--5--]
[--------6--|--------6--|--------6--|--3--]

04:26
weird bit Constantly hit the chord - sounds like a flanger effect?
   D
[-----]
[--7--]
[--7--]
[--7--]
[--5--]
[-----]

Those eyes - Madness reigns
 Acid tears - A constant stream of pain
 That life - wasted here
 Nothing left - No mourners, no name

04:48
  Bb  C  B  D Bb  C  B 
[-----------------------]
[--3--5--4--7--3--5--4--]
[--3--5--4--7--3--5--4--]
[--3--5--4--7--3--5--4--]
[--1--3--2--5--1--3--2--]
[-----------------------]

 You're only human
Just mortal to me
 You're only human
Just an earthbound disease

05:11                                       
[-----------------]
[--Scratch pleck--]
[-----down the----]
[-------string----]
[-----------------]
[--XXXXXXXXXXX----]

Section 4
**********
[------------------------|-----------|-------------------]
[----repeat 3 1/2--------|-----------|---repeat section--]
[-------times------------|-----------|---------3---------]
[------------------------|--7-5------|------8 times------]
[--------5-7--------5----|------7-5--|-------------------]
[--5-7-8------5-7-8---3--|-----------|-------------------]

Chourus - 05:12
****************
Play Section 4 Through Chorus
******************************
Bethlehem to Bedlam Fayre - No one helps, no one cares
 Let the people mock and stare - See them run around, around, around

Section 3
**********
 Bethlehem to Bedlam Fayre - No one helps, no one cares
 Let the people mock and stare - See them run around, around, around
 Bethlehem to Bedlam Fayre - No one helps, no one cares
 Let the people mock and stare - See them run around, around, around

Small Solo
***********
05:51                                                                 s
[-----------13-15-----------13-----|-----------13-15----------13-18-20\--]
[--13-15-16--------13-15-16--------|--13-15-16-------13-15-16------------]
[------------------------------15--|-------------------------------------]
[----------------------------------|-------------------------------------]
[----------------------------------|-------------------------------------]
[----------------------------------|-------------------------------------]


Nice Tune
Добавлено: 29.11.2013
Другие материалы по этой песне:
  • Аккорды и текст

Страница создана 07.06.2012
http://primanota.ru/arena/bedlam-fayre-chords.htm
Привет, Гость.
Предлагаем пройти революционный курс по гитаре.
Подарок от PrimaNota.Ru, забирай!