PrimaNota.ru - самый крупный в мире бесплатный архив песенных текстов, аккордов, табулатур и нот


Area 11 - Shi No Barado Feat Beckii Cruel - таба, видео

Регистрация Запомнить меня
Войти через:  Facebook Google Twitter Vk Yandex Mail.ru

Area 11 - Shi No Barado Feat Beckii Cruel - таба, видео

Печатать
Просмотров: 129
(Play with distortion)

Tuning: Standard (EADGBe)

Intro: 
(Lead Guitar)

  
|---------------------------------------------------------------------------|
|(Palm mute quietly, getting louder, stop palm muting on bar 8)-------------|
|---------------------------------------------------------------------------|
|-----12-12-12-12-12-12-12-12 X8 Bars---------------------------------------|
|---------------------------------------------------------------------------|
|---------------------------------------------------------------------------|

|---------------------------------------------------------------------------|
|----------------------------------------------12--10-----------------------|
|----------14--11-----------14--11-------------------------------11--12--11-|
|--12--14------------12--14------------12--14------------12--14-------------|
|---------------------------------------------------------------------------|
|---------------------------------------------------------------------------|

|--------------------------------10----10--12--10--14----14--12--10--15-----|
|---------------------------------------------------------------------------|
|----------14--11------------11---------------------------------------------|
|--12--14------------12--14-------------------------------------------------|
|---------------------------------------------------------------------------|
|---------------------------------------------------------------------------|

|--15--14--15--10-----------------------------------------------------------|
|---------------------------------------------------------------------------|
|---------------------------------------------------------------------------|
|---------------------------------------------------------------------------|
|---------------------------------------------------------------------------|
|---------------------------------------------------------------------------|


Into:
(Guitar 2)

|---------------------------------------------------------------------------|
|--------------------------------------------PM______________---------------|
|--7--x--7--x--7--x--7--4--x--4--x--4--x--4---------------------------------|
|--7--x--7--x--7--x--7--4--x--4--x--4--x--4--4444444455555555-------x2------|
|--5--x--5--x--5--x--5--2--x--2--x--2--x--2--4444444455555555---------------|
|--------------------------------------------2222222233333333---------------|

Verse:
(No Guitar)


Bridge:
(Guitar 2)

|--------------------------------------------|
|--------------------------------------------|
|--7--x--7--x--7--x--7--4--x--4--x--4--x--4--|
|--7--x--7--x--7--x--7--4--x--4--x--4--x--4--|
|--5--x--5--x--5--x--5--2--x--2--x--2--x--2--|
|--------------------------------------------|

|--------------------------------------------|
|--------------------------------------------|
|--------------------------------------------|
|--4--x--4--x--4--x--4--5--x--5--x--5--x--5--|   
|--4--x--4--x--4--x--4--5--x--5--x--5--x--5--|
|--2--x--2--x--2--x--2--3--x--3--x--3--x--3--|

|--------------------------------------------|
|--------------------------------------------|
|--7--x--7--x--7--x--7-----------------------|
|--7--x--7--x--7--x--7--4--x--4--x--4--x--4--|
|--5--x--5--x--5--x--5--4--x--4--x--4--x--4--|
|-----------------------2--x--2--x--2--x--2--|

|--------------------------------------------|
|--------------------------------------------|
|--4--x--4--x--4--x--4--2--x--2--x--2--x--2--|
|--4--x--4--x--4--x--4--2--x--2--x--2--x--2--|   
|--2--x--2--x--2--x--2--0--x--0--x--0--x--0--|
|--------------------------------------------|

Chorus:
(Guitar 2)


|---------------------------------------------------------------------------|
|---------------------------------------------------------------------------|
|-----------------7--x--7---------------------------------------------------|
|--5--x--5--------7--x--7--------7--x--7----9----7--------------------------|
|--5--x--5--------5--x--5--------7--x--7----9----7--------------------------|
|--3--x--3-----------------------5--x--5----7----5--------------------------|

|---------------------------------------------------------------------------|
|---------------------------------------------------------------------------|
|-----------------7--x--7---------------------------------------------------|
|--5--x--5--------7--x--7--------7--x--7------------------------------------|
|--5--x--5--------5--x--5--------7--x--7------------------------------------|
|--3--x--3-----------------------5--x--5------------------------------------|

|---------------------------------------------------------------------------|
|---------------------------------------------------------------------------|
|-----------------7--x--7---------------------------------------------------|
|--5--x--5--------7--x--7--------7--x--7----9----7--------------------------|
|--5--x--5--------5--x--5--------7--x--7----9----7--------------------------|
|--3--x--3-----------------------5--x--5----7----5--------------------------|

|---------------------------------------------------------------------------|
|---------------------------------------------------------------------------|
|-----------------7--x--7---------------------------------------------------|
|--5--x--5--------7--x--7--------7--x--7----7-------------------------------|
|--5--x--5--------5--x--5--------7--x--7----7-------------------------------|
|--3--x--3-----------------------5--x--5----5-------------------------------|

After Chorus:
(Guitar 2)

|---------------------------------------------------------------------------|
|--------------------------------------------PM______________---------------|
|--7--x--7--x--7--x--7--4--x--4--x--4--x--4---------------------------------|
|--7--x--7--x--7--x--7--4--x--4--x--4--x--4--4444444455555555---------------|
|--5--x--5--x--5--x--5--2--x--2--x--2--x--2--4444444455555555---------------|
|--------------------------------------------2222222233333333---------------|

(Guitar 1)
|--------------------------------10----10--12--10--14----14--12--10--15-----|
|---------------------------------------------------------------------------|
|----------14--11------------11---------------------------------------------|
|--12--14------------12--14-------------------------------------------------|
|---------------------------------------------------------------------------|
|---------------------------------------------------------------------------|

|--15--14--15--10-----------------------------------------------------------|
|---------------------------------------------------------------------------|
|---------------------------------------------------------------------------|
|---------------------------------------------------------------------------|
|---------------------------------------------------------------------------|
|---------------------------------------------------------------------------|

That's all I know. It pretty much repeats throughout the whole song.
As for the Middle 8, I'll tab it when I get time (after I've figured it out)!

Tabbed by Franco (Fvfvxcvxcv)
Добавлено: 31.10.2013
Другие материалы по этой песне:
  • Аккорды и текст

Страница создана 31.10.2013
http://primanota.ru/area-11/shi-no-barado-feat-beckii-cruel-chords.htm
Привет, Гость.
Предлагаем пройти революционный курс по гитаре.
Подарок от PrimaNota.Ru, забирай!