PrimaNota.ru - самый крупный в мире бесплатный архив песенных текстов, аккордов, табулатур и нот


Area 11 - Shi No Barado - аккорды и текст, бас-таба, видео

Регистрация Запомнить меня
Войти через:  Facebook Google Twitter Vk Yandex Mail.ru

Area 11 - Shi No Barado - аккорды и текст, бас-таба, видео

Печатать
Просмотров: 223
Уроки эстрадного вокала в Санкт-Петербурге
Shi No Barado
Area 11
This is my fist tab/chords so it probably isn't that good. This is all by ear so I know it probably isn't 100%
correct but it still sounds alright. Also some places might sound a bit off but when you play them with the
original track ( https://www.youtube.com/watch?v=g7KVtgoAbX8 ) it sounds right 



Intro:
D Bm F#m G X2

Solo:
E|---------------------------------------------------------------------------|
B|----------------------------------------------12--10-----------------------|
G|----------14--11-----------14--11-------------------------------11--12--11-|
D|--12--14------------12--14------------12--14------------12--14-------------|
A|---------------------------------------------------------------------------|
E|---------------------------------------------------------------------------|

E|--------------------------------10----10--12--10--14----14--12--10--15-----|
B|---------------------------------------------------------------------------|
G|----------14--11------------11---------------------------------------------|
D|--12--14------------12--14-------------------------------------------------|
A|---------------------------------------------------------------------------|
E|---------------------------------------------------------------------------|

E|--15--14--15--10-----------------------------------------------------------|
B|---------------------------------------------------------------------------|
G|---------------------------------------------------------------------------|
D|---------------------------------------------------------------------------|
A|---------------------------------------------------------------------------|
E|---------------------------------------------------------------------------|


D                       Bm
I saw your face in the LEDs
F#m                  G
My revenge was your gift to me
D                          Bm
It's something that I can never repay
   F#m          G
But I will try anyway

D                   Bm
I sent a message I know you'd see
F#m                    G
A promise written on a TV screen
 D                        F#m
Now fate led you down the path to me
Bm                     A
Now I'm begging you on my knees

                     G                       D
Cause baby when our eyes met (baby when our eyes met)
         Em                Bm
I could never look away
 A                  G                          D
You're all I ever wanted  (you're all I ever wanted)
          Bm             A
There's nothing left to say

                    G                     D
Cause baby you can use me  (baby you can use me)
       Em                       Bm
I will do what you want me to
A                 G                      Bm
And baby you can kill me  (baby you can kill me)
      A
When I'm no use, when I'm no use to you

E|--------------10----10--12--10--14----14--12--10--15-----|
B|---------------------------------------------------------|
G|----------11---------------------------------------------|
D|--12--14-------------------------------------------------|
A|---------------------------------------------------------|
E|---------------------------------------------------------|

E|--15--14--15--10-----------------------------------------|
B|---------------------------------------------------------|
G|---------------------------------------------------------|
D|---------------------------------------------------------|
A|---------------------------------------------------------|
E|---------------------------------------------------------|

D                     Bm
My body will be your fortress
       F#m                 G
I will keep you safe from pain
D                     Bm
My eyes will be your weapons
    F#m              G
My losses are your gains

Whoa

   D                      Bm
Together we can burn this to the ground
   F#m            G
Rebuild it in to something right
 D                             F#m
Cause you are bigger than the planet Earth
   Bm            A
And I am your satellite 

                     G                       D
Cause baby when our eyes met (baby when our eyes met)
         Em                Bm
I could never look away
 A                  G                          D
You're all I ever wanted  (you're all I ever wanted)
          Bm             A
There's nothing left to say

                    G                     D
Cause baby you can use me  (baby you can use me)
       Em                       Bm
I will do what you want me to
A                 G                     Bm
And baby you can kill me  (baby you can kill me)
      A
Whoa when I'm no use to you

A
I'm not afraid and I'm not alone
                Bm                      G
Because you're with me in my dreams  (you're with me tonight)
A
I won't give up on this perfect love
          Bm                         G
Even when my memories fail me  (when my memories fail me)

      A
Cause I see you through burning eyes
              Bm                     E
I write your name down in my heart
 
   G
Oh baby I'm just using you

My love you know I want you to
 A                   D
Look into the skies


*sparkles piano*



                     G                       D
Cause baby when our eyes met (baby when our eyes met)
         Em                Bm
I could never look away
 A                  G                          D
You're all I ever wanted  (you're all I ever wanted)
          Bm             A
There's nothing left to say

                      G                     D
Because baby you can use me  (baby you can use me)
       Em                       Bm
I will do what you want me to
A                 G                      Bm
And baby you can kill me  (baby you can kill me)
      A
When I'm no use, when I'm no...

                     G                       D
Cause baby when our eyes met (baby when our eyes met)
         Em                Bm
I could never look away
 A                  G                          D
You're all I ever wanted  (you're all I ever wanted)
          Bm             A
There's nothing left to say

                    G                     D
Cause baby you can use me  (baby you can use me)
       Em                       Bm
I will do what you want me to
A                 G                      Bm
And baby you can kill me  (baby you can kill me)
      D                       A      G
When I'm no use, when I'm no use to you

               D        Em   Bm
Baby when our eyes met
A  G
Whoa
                     D   Bm   A
You're all I ever wanted
    G
No
Добавлено: 08.07.2014
Другие материалы по этой песне:
  • Аккорды и текст

Страница создана 25.07.2013
http://primanota.ru/area-11/shi-no-barado-chords.htm
Привет, Гость.
Предлагаем пройти революционный курс по гитаре.
Подарок от PrimaNota.Ru, забирай!