PrimaNota.ru - самый крупный в мире бесплатный архив песенных текстов, аккордов, табулатур и нот


Arden Cho - Wake Me Up - таба, видео

Регистрация Запомнить меня
Войти через:  Facebook Google Twitter Vk Yandex Mail.ru

Arden Cho - Wake Me Up - таба, видео

Печатать
Просмотров: 81
Уроки эстрадного вокала в Санкт-Петербурге
-------------------------------------------------------------------------------
                 Wake Me Up (Originally by Avicii) - Arden Cho
-------------------------------------------------------------------------------
Link: https://www.youtube.com/watch?v=MWmejva4nQU

Tabbed by: Kevin Lee

Tuning: Open D

Capo: 4

Key: Gb Major

*The frets are relative to the capo

*Chord progression is always  Ebm7   Gb/B   Gb 

Intro & Verses
       Ebm7              Gb/B                     Gb
e|-----------------------------------------------------------------|
B|-------0------------------0------------------0----------0--------|
G|----------0------------------0------------------0----------0-----|
D|-----0---------------0--------------------0--------0-------------|
A|--0h2------------------------------------------------------------|
E|-----------------------5---------------0-------------0-----------|

1st Chorus
       Ebm7              Gb/B                     Gb
e|--------0----------------0-------------------0----------0--------|
B|-----------0----------------0-------------------0----------0-----|
G|-----0---------------0--------------------0--------0-------------|
D|-----------------------------------------------------------------|
A|--0h2------------------------------------------------------------|
E|-----------------------5---------------0-------------0-----------|

2nd Chorus (This is where you start strumming)

   Ebm7           Gb/B             Gb
e|--0---------------0---------------0---------|
B|--0---------------0---------------0---------|
G|--0---------------0---------------0---------|
D|--0---------------0---------------4---------|
A|--2---------------x---------------0---------|
E|--x---------------5---------------0---------|


************************************
| h   hammer-on
| x   Mute note
************************************
Добавлено: 27.11.2015
Вам также может быть интересно:
Другие материалы по этой песне:
  • Аккорды и текст

Страница создана 27.11.2015
http://primanota.ru/arden-cho/wake-me-up-chords.htm
Привет, Гость.
Предлагаем пройти революционный курс по гитаре.
Подарок от PrimaNota.Ru, забирай!