PrimaNota.ru - самый крупный в мире бесплатный архив песенных текстов, аккордов, табулатур и нот


Arcturus - Shipwrecked Frontier Pioneer - таба, видео

Регистрация Запомнить меня
Войти через:  Facebook Google Twitter Vk Yandex Mail.ru

Arcturus - Shipwrecked Frontier Pioneer - таба, видео

Печатать
Просмотров: 141
Artist: Arcturus
Song: Shipwrecked Frontier Pioneer
Album: Sideshow Symphonies
Released In 2005
Tabbed By Obscurr
Tuning: D Standard

Guitar 1

Riff 1 (2x) Artificial Harmonics Here and there
|--------------------------------------------------------------|
|--------------------------------------------------------------|
|--------------------------------------------------------------|
|--------------------------------------------------------------|
|------6---14-11-----6---14-11------9----17-14------9----17-14-|
|-4-7----7-------4-7---7-------7-10---10-------7-10---10-------|

Riff 2 (2x)
|---------------------------------------------|
|---------------------------------------------|
|-4--7----------4--7--------------------------|
|-6--9-10-9-7-6-6--9-10-9-7-9-10-9-7-6--11--6-|
|---------------------------------------9---4-|
|---------------------------------------------|

Riff 3a (2x) (each variation played 4x each)
|--------------------------------|
|--------------------------------|
|----11/12/11--------11/12/11----|
|--------------------------------|
|-9---------------7--------------|
|-------------9----------------7-|

Riff 4 (x2) Unsure about this part
|---------------------------|
|---------------------------|
|---------------------------|
|-9-----------14------------|
|----9-------------14-------|
|--------7--------------12--|

Riff 5 (2x)
|------------|
|------------|
|------------|
|---7-----12-|
|------------|
|-5----10----|

Riff 6 fill
|------------------------|
|------------------------|
|------------------------|
|-9--9--9--9-------------|
|-9--9--9--9-------------|
|-7--7--7--7--/ps/--/-/--|

Then Riff 2 (2x)

Riff 7 (5x) On 5th time there is picking variations and a pickscrape to end it off
|----------------|
|----------------|
|-8--11--3--6--9-|
|----------------|
|-6--9---1--4--7-|
|----------------|

Riff 8 (6x)
|------|
|------|
|------|
|-8--4-|
|-6--2-|
|------|

Riff 9 (2x)
|------------|
|------------|
|------------|
|-7-----9----|
|-5--7--7--9-|
|----5-----7-|

Then Riff 3a (2x)

Riff 3b (1x) (Each Variation Played 4x Each)
|--------------------------------------|
|--------------------------------------|
|--------------------------------------|
|---11/12/11-------9/10/9------4/5/4---|
|-------------9-----------7----------2-|
|-7--------------5-----------0---------|

Riff 10 (4x)
|---------|
|---------|
|---------|
|-9--7--5-|
|-7--5--3-|
|---------|

Riff 11 (4x) Unsure about this riff
|----|
|----|
|----|
|-9--|
|-9--|
|-7--|

Riff 12 (1x)
|------------------------|
|-9--7--5--4--9--7--5--7-|
|-9--7--5--4--9--7--5--7-|
|-9--7--5--4--9--7--5--7-|
|-7--5--3--2--7--5--3--5-|
|------------------------|

Then Riff 3a (2x)
Then Riff 3b (2x) (cut off 2/3 way through the second time)

Riff 13 (Outro)

|----|
|----|
|----|
|-2--|
|-2--|
|-0--|

End
Добавлено: 11.08.2015
Другие материалы по этой песне:
  • Аккорды и текст

Страница создана 11.08.2015
http://primanota.ru/arcturus/shipwrecked-frontier-pioneer-chords.htm
Привет, Гость.
Предлагаем пройти революционный курс по гитаре.
Подарок от PrimaNota.Ru, забирай!