PrimaNota.ru - самый крупный в мире бесплатный архив песенных текстов, аккордов, табулатур и нот


Arctic Monkeys - The Nettles - таба, бас-таба, видео

Регистрация Запомнить меня
Войти через:  Facebook Google Twitter Vk Yandex Mail.ru

Arctic Monkeys - The Nettles - таба, бас-таба, видео

Печатать
Просмотров: 317
Уроки эстрадного вокала в Санкт-Петербурге
This is my first tab, i think its right though. I've tabbed it from watching "The Arctic 
Live at the Apollo" If you ever watch it look for my credit "Sean Hunt" if you can be 
haha.

INTRO & VERSE

Jamie Cook - Guitar 2

e|-----------------|
B|-----------------|
G|-----------------| x4
D|-----------------|
A|-----------------|
E|5-5-5-4-4-4-3-2--|

Alex Turner - Guitar 1

e|---------------
B|17~~~~~~~~~~~~~
G|---------------|  Played over the top after Jamie has played the INTRO
D|---------------|  twice.
A|---------------|
E|---------------|

VERSE

Jamie Cook & Alex Turner

Stank into their calculations...

e|---------------------------------------------|
B|---------------------------------------------|
G|---------------------------------------------|
D|---------------------------------------------|
A|---------------------------------------------|
E|5-5-5-4-4-4-3-2-5-5-5-4-4-4-2--5-5-5-4-4-4-2-|

Looked for the boy who was hanging his head low...

e|----------------------------------------------|
B|----------------------------------------------|
G|----------------------------------------------|
D|----------------------------------------------|
A|----------------------------------------------|
E|5-5-5-4-4-4-3-2-5-5-5-4-4-4-3-2-5-5-5-4-4-4-2-|

BRIDGE

Jamie Cook & Alex Turner

And with a scowl in his pocket...

e|-------------------------------------------|
B|-------------------------------------------|
G|-------------------------------------------|
D|-------------------------------------------|
A|-------4-4-4-4-3-3-3-3-------3-3-3-3-4-4-4-|
E|2-2-2-2---------------5-5-5-5--------------|

THEN REPEATED THE INTRO

Jamie Cook & Alex Turner

e|-----------------|
B|-----------------|
G|-----------------| x4
D|-----------------|
A|-----------------|
E|5-5-5-4-4-4-3-2--|

VERSE 2

Jamie Cook & Alex Turner

And afterwards...

e|---------------------------------------------|
B|---------------------------------------------|
G|---------------------------------------------|
D|---------------------------------------------|
A|---------------------------------------------|
E|5-5-5-4-4-4-3-2-5-5-5-4-4-4-2--5-5-5-4-4-4-2-|

He scrambles to find the dockland...

e|----------------------------------------------|
B|----------------------------------------------|
G|----------------------------------------------|
D|----------------------------------------------|
A|----------------------------------------------|
E|5-5-5-4-4-4-3-2-5-5-5-4-4-4-3-2-5-5-5-4-4-4-2-|

He lost of his footholes...

REPEAT THE BRIDGE

Jamie Cook & Alex Turner

And with a scowl in his pocket...

e|-------------------------------------------|
B|-------------------------------------------|
G|-------------------------------------------|
D|-------------------------------------------|
A|-------4-4-4-4-3-3-3-3-------3-3-3-3-4-4-4-|
E|2-2-2-2---------------5-5-5-5--------------|

Fell in the nettles, fell in the nettles

THEN ALEX PLAYS THIS IN A PLUCKING METHOD

e|-2
B|--
G|--
D|--   x6
A|--
E|-2

JAMIE PLAYS THIS ALONG WITH HIM (Gm Chord)

e|-2
B|-2
G|-2
D|-4   x6
A|-4
E|-2

THEN ALEX PLAYS THIS

e|-5-4-3-2----|
B|------------|
G|------------|
D|------------|   x8
A|------------|
E|-5-4-3-2----|

JAMIE PLAYS THIS UNDERNEATH (WITH A STEADY PACE)

e|-----------------|
B|-----------------|
G|-----------------| x8
D|-----------------|
A|-----------------|
E|5-5-5-4-4-4-3-2--|

OUTRO

louder, louder marching powder!

Alex Turner and Jamie Cook

e|-----------------|
B|-----------------|
G|-----------------| x4
D|-----------------|
A|-----------------|
E|5-5-5-4-4-4-3-2--|

SONG STRUCTURE

INTRO
VERSE 1
BRIDGE
REPEAT INTRO
VERSE 2
BRIDGE
PLUCKING METHOD
OUTRO

Thanks for reading, I hope you enjoy the tab (:
Добавлено: 28.02.2012
Другие материалы по этой песне:

Страница создана 28.02.2012
http://primanota.ru/arctic-monkeys/the-nettles-chords.htm
Привет, Гость.
Предлагаем пройти революционный курс по гитаре.
Подарок от PrimaNota.Ru, забирай!