PrimaNota.ru - самый крупный в мире бесплатный архив песенных текстов, аккордов, табулатур и нот


Arctic Monkeys - Temptation Greets You Like Your Naughty Friend - текст песни, таба, бас-таба, видео

Регистрация Запомнить меня
Войти через:  Facebook Google Twitter Vk Yandex Mail.ru

Arctic Monkeys - Temptation Greets You Like Your Naughty Friend - текст песни, таба, бас-таба, видео

Печатать
Просмотров: 553
Уроки эстрадного вокала в Санкт-Петербурге
ARCTIC MONKEYS - TEMPTATION GREETS YOU LIKE YOUR NAUGHTY FRIEND
track taken from the single, "Brianstorm".
featuring Dizzee Rascal

this is my first tab so I would appreciate advice rather than criticism please.
enjoy...

e------------------------| (x13)
B------------------------|
G------------------------|
D----7-10-----7-10-------|
A------------------------|
E--5-----0-0-5----0-0-5--|

(lyrics come in at 00:21 this is when you pause)
(and then continue to play at 00:35)

REPEAT 1ST PART UNTILL 1:02, AT 1:02 PLAY THIS RIFF
[Listen to the song to get the strumming and timing right]

e------------------------| (x2)
B------------------------|
G-----5-559-5-7-9-7-5-4--|
D-7-775-559-5-7-9-7-5-4--|
A-7-773-337-3-5-7-5-3-2--|
E-5-55-------------------|

then go straight back into the first part

e------------------------|  (on the 4th time, pause for a second and then             
B------------------------|   continue another 14 times)
G------------------------|
D----7-10-----7-10-------|
A------------------------|
E--5-----0-0-5----0-0-5--|

also on the 12th time, a small riff is played in the background,that goes like this

e-----------------------| (x2)
B--1-3-\5-111-3\5-3/1~--|
G-2---------------------|
D-----------------------|
A-----------------------|
E-----------------------|

then back into the chorus

e------------------------| (x4)
B------------------------| (the last chord on the 4th time is this):
G-----5-559-5-7-9-7-5-4--|  G-7
D-7-775-559-5-7-9-7-5-4--|  D-7
A-7-773-337-3-5-7-5-3-2--|  A-5
E-5-55-------------------|  E--

then Dizzee Rascal will sing, play this:

e-----------| (x15)  
B-----------|
G-----------|
D-----------|
A--0-3-7-7--|
E-5---------|

on the 15th time at the end, play these notes after

E-5-----------------------------------------|
A--2-3-5-------5-55555-3-33333-2-2h5-5-3-2--|
D-------7-77777---------------------2-------|
G-------------------------------------------|
B-------------------------------------------|
e-------------------------------------------|


then play the main riff:

e------------------------| (x14)
B------------------------|
G-----5-559-5-7-9-7-5-4--|
D-7-775-559-5-7-9-7-5-4--|
A-7-773-337-3-5-7-5-3-2--|
E-5-55-------------------|

end...

thanks for looking, please rate :)
Добавлено: 09.05.2012
Другие материалы по этой песне:

Страница создана 09.05.2012
http://primanota.ru/arctic-monkeys/temptation-greets-you-like-your-naughty-friend-chords.htm
Привет, Гость.
Предлагаем пройти революционный курс по гитаре.
Подарок от PrimaNota.Ru, забирай!