PrimaNota.ru - самый крупный в мире бесплатный архив песенных текстов, аккордов, табулатур и нот


Arctic Monkeys - Pretty Visitors Live - таба, бас-таба, видео

Регистрация Запомнить меня
Войти через:  Facebook Google Twitter Vk Yandex Mail.ru

Arctic Monkeys - Pretty Visitors Live - таба, бас-таба, видео

Печатать
Просмотров: 388
Уроки эстрадного вокала в Санкт-Петербурге
-------------------------------------------------------------------------------
		     Pretty Visitors Live - Arctic Monkeys
-------------------------------------------------------------------------------
Tabbed by: Anzelmo	

Intro on bass & keyboard
Keyboard:
e|-----------------------------------------------------|
B|-----------------------------------------------------|
G|-6-4-6-4-6-4-6--6-4-2-4-2--1-------1-2-1-2-1---------|
D|------------------------------4--4-----------4-4-2-4-|
A|-----------------------------------------------------|
E|-----------------------------------------------------|


Verse 1:
e|--------------------------------------------------|
B|--------------------------------------------------|
G|--------------------------------------------------| 
D|-----------------------------9--4--9--7-----------| x2
A|--9--5--9------9--5--9-------------------9--5--9--|
E|--------------------------------------------------|


Pre chorus:
e|----------------------------------------|
B|----------------------------------------|
G|----------------------------------------|
D|----------------------------------------|
A|------4--------5-4-------4---------5----|
E|-2~~------2~~-------2~~-------2~~-------|

Chorus:
e|-----------------------------------|
B|-----------------------------------|
G|-----------------------------------|
D|-----------------------------------| x2
A|-----------------4-5---5---5-------|
E|-2---2---2---2-5---------------4---|

Verse 2:
e|--------------------------------------------------|
B|--------------------------------------------------|
G|--------------------------------------------------| 
D|-----------------------------9--4--9--7-----------| 
A|--9--5--9------9--5--9-------------------9--5--9--|
E|--------------------------------------------------|

e|--------------------------------------------------|
B|--------------------------------------------------|
G|--------------------------------------------------| 
D|-----------------------------9--4--9--7-----------| 
A|--9--5--9------9--5--9-------------------9--------|
E|--------------------------------------------------|

Repeat chorus

Post chorus:
e|----------------------------------------|
B|----------------------------------------|
G|----------------------------------------|
D|----------------------------------------|
A|----------------------------------------|
E|-2~~------2~~-------2~~-------2~~-------|

Solo:
e|----------------------------------|
B|----------------------------------|
G|----------------------------------|
D|----------------------------------|
A|------5---4--5-9---8-5---8---9-4--|
E|--2-------------------------------|

e|------------------------------------|
B|------------------------------------|
G|------------------------------------|
D|------------------------------------|
A|------5---4--5-9---8-5---8---9-11-12|
E|--2---------------------------------|

e|----------------------------------|
B|----------------------------------|
G|----------------------------------| x2
D|----------------------------------|
A|------5---4--5-9---8-5---8---9-4--|
E|--2-------------------------------|


   2nd guitar, comes after first bar
e|------------------------------------|
B|------------------------------------|
G|------------------------------------|
D|------------------------------------|
A|------9\-------9\------------9-11-12|
E|------------------------------------|


e|----------------------------------|
B|----------------------------------|
G|------7---6--7-11--10-7--10--11-6-| x2
D|--4-------------------------------|
A|----------------------------------|
E|----------------------------------|

Bridge:
e|-----------------------------------------|
B|-----------------------------------------|
G|-----------------------------------------|
D|--11-11-11-11-11-11-7--11-11-11-11-11-11-| few times
A|--11-11-11-11-11-11-7--11-11-11-11-11-11-|
E|--9--9--9--9--9--9--5--9--9--9--9--9--9--|
                       
e|---------------|
B|---------------|
G|---------------|
D|---------------|
A|--5--5--5------|
E|-----------4---|


Repeat chorus x2

2nd guitar:                                  end on:
e|-----9--------9--------9--------10~~--|      e|-14~-|
B|--7----7---7----7---7----7---7--------|      B|-14~-|
G|--------------------------------------| x4   G|-----|
D|--------------------------------------|      D|-----|
A|--------------------------------------|      A|-----|
E|--------------------------------------|      E|-----|

					       e|-----|
                                               B|-----|
					       G|-----|
					       D|-----|
					       A|-----|
					       E|-2~--|


===============================================================================
Добавлено: 24.03.2012
Другие материалы по этой песне:
  • Аккорды и текст

Страница создана 24.03.2012
http://primanota.ru/arctic-monkeys/pretty-visitors-live-chords.htm
Привет, Гость.
Предлагаем пройти революционный курс по гитаре.
Подарок от PrimaNota.Ru, забирай!