PrimaNota.ru - самый крупный в мире бесплатный архив песенных текстов, аккордов, табулатур и нот


Arctic Monkeys - Katty On A Mission - таба, видео

Регистрация Запомнить меня
Войти через:  Facebook Google Twitter Vk Yandex Mail.ru

Arctic Monkeys - Katty On A Mission - таба, видео

Печатать
Просмотров: 211
Уроки эстрадного вокала в Санкт-Петербурге
Katty on a Mission

Tuning: Standard EADGBe

Em , C , Am , C

Alex is playing them an octave higher repeteadly.
 Em      C        Am
-7-     -8--     -5-|
-8-     -8--     -5-|
-9-     -9--     -5-|
-9-     -10-     -7-|
-7-     -10-     -7-|
---     -8--     -5-|
 While Jamie strums one time at chord transition.(Lower )

Intro:
                                Em
--3------------------------------0---|
-----5p3--0----------------------0---|
------------------2-0------------0---|
------------------------2-0------2---|
---------------------------------2---|
---------------------------------0---|

Em
In this room of darkness I ain't undercover
C
That won't stop my prowess rubbing off on to another
Am
Elevating higher as my body's moving lower
C
Now I've reached my element you better move over oh

But he doesn't he blocks my way
I try to push past but he wants to play
So I sip his drink as I hold his gaze
Ooh

Em
When we erupt in to the room
C
And hear the sub go boom
Am
A feeling easy to resume
C
This right here I swear will end too soon


So I sink in to the tune
As I inhale the fume
A feeling easy to resume
This right here I swear will end to soon

1st Solo:
-----------------------------------------------------------------------------------|
---------8h10/11-----10-8-----10b11--10---8h10p8--10b11----8h10p8---5h7p5---3h5p3--|
--7/9------------------------------------------------------------------------------|
-----------------------------------------------------------------------------------|
-----------------------------------------------------------------------------------|
-----------------------------------------------------------------------------------|

------------------------|
--0---------------------|
----2----0--------------|
------------2----0------|
---------------------2--|
------------------------|


My limbs seem to move what the beat dictates to me
I push in to the middle the sound becomes a part of me
Taking me back to that sweet familiarity
Making my adrenalin rise I feel the eyes on me

Sip the bottle now don't be slow
Keep up with me as we lose control
Keep up with me as we lose control

When we erupt in to the room
And hear the sub go boom
A feeling easy to resume
This right here I swear will end too soon
So I sink in to the tune
As I inhale the fume
A feeling easy to resume
This right here I swear will end to soon

2nd Solo:       (no hammer ons/pull offs in this solo)
---------------------------------------------------------------------------------------|
---------------------------------------------------------------------------------------|
-------0-------0------------------------------------------5----------------------------|
--222------7------7b9--757---57--7b8-7----57---57-----7b9---7b9-5--------575-7b9--575--|
-------------------------------------------------------------------7-------------------|
---------------------------------------------------------------------------------------|


                                              Em
--3------------------------------0---|
-----5p3--0----------------------0---|
------------------2-0------------0---|
------------------------2-0------2---|
---------------------------------2---|
---------------------------------0---|
Добавлено: 30.03.2012
Другие материалы по этой песне:
  • Аккорды и текст

Страница создана 30.03.2012
http://primanota.ru/arctic-monkeys/katty-on-a-mission-chords.htm
Привет, Гость.
Предлагаем пройти революционный курс по гитаре.
Подарок от PrimaNota.Ru, забирай!