PrimaNota.ru - самый крупный в мире бесплатный архив песенных текстов, аккордов, табулатур и нот


Arctic Monkeys - I Want It All - таба, бас-таба, видео

Регистрация Запомнить меня
Войти через:  Facebook Google Twitter Vk Yandex Mail.ru

Arctic Monkeys - I Want It All - таба, бас-таба, видео

Печатать
Просмотров: 466
Уроки эстрадного вокала в Санкт-Петербурге
Авторы музыки: Alex Turner
Авторы текста: Alex Turner
-----------------------------------------------------------------------------
                             I Want It All - Arctic Monkeys
-----------------------------------------------------------------------------
Tabbed by: Tennessee90
E-mail:

Tuning:Standard

Helloooo,

so this is my first tab I'm posting. Usually I submit some chords so I hope
that this tab is okay for you.
This song isn't that hard. At least for the verse and chorus because it's all the same :)

The solo was hard for me to tab out. And I'm not 100% sure that
the ending of it is right. So please, please
correct me and I will change it. Okay...enjoy it!

update: thanks to fetusrobot for giving some corrections for the solo!



Verse and Chorus (all the same):

e|--------------------------------------------------------------------------|
B|--------------------------------------------------------------------------|
G|--------------------------------------------------------------------------|
D|----5---5-5---7---7-7---8---8-8--10-10-10------7777---7777----------------|
A|----x---x-x---x---x-x---x---x-x---x---x-x------xxxx---xxxx----------------|
E|----3---3-3---5---5-5---6---6-6---8---8-8------5555---5555----------------|


Bridge 4x:
e|--------------------------------------------------------------------------|
B|--------------------------------------------------------------------------|
G|--------------------------------------------------------------------------|
D|----5~--------7~---------8~-------10~------------7~-----------------------|
A|--------------------------------------------------------------------------|
E|--------------------------------------------------------------------------|


Solo:
e|--------------------------------------------------------------------------|
B|-------------13-15-15b-13--10-8--------8----------------------------------|
G|----12h14-----------------------9~-------9~-------------------------------|
D|--------------------------------------------------------------------------|
A|--------------------------------------------------------------------------|
E|--------------------------------------------------------------------------|

e|----------------------------------------------------------------------------|
B|--------------13-15-15b-13--10-8------10-13-15-17-15-13-10------------------|
G|------12h14----------------------9~-----------------------------------------|
D|----------------------------------------------------------------------------|
A|----------------------------------------------------------------------------|
E|----------------------------------------------------------------------------|


That is the ending of this solo. I'm not sure if it's perfect but
this is played 'til the end.
e|--------------------------------------------------------------------------|
B|---------13s171717-15-13--------------------------------------------------|
G|--------------------------------------------------------------------------|
D|--------------------------------------------------------------------------|
A|--------------------------------------------------------------------------|
E|--------------------------------------------------------------------------|

During the sole you play the same octaves as in the verse until it ends.

Like I said, corrections AND tips are welcome!
************************************

| /   slide up
| \   slide down
| h   hammer-on
| p   pull-off
| ~   vibrato
| +   harmonic
| x   Mute note
| b   Bend
| pb  Pre-bend
| br  Bend release
| pbr Pre-bend release
| brb Bend release bend

************************************
Добавлено: 17.11.2013
Другие материалы по этой песне:

Страница создана 30.08.2013
http://primanota.ru/arctic-monkeys/i-want-it-all-chords.htm
Привет, Гость.
Предлагаем пройти революционный курс по гитаре.
Подарок от PrimaNota.Ru, забирай!