PrimaNota.ru - самый крупный в мире бесплатный архив песенных текстов, аккордов, табулатур и нот


Arctic Monkeys - Dangerous Animals - текст песни, таба, бас-таба, видео

Регистрация Запомнить меня
Войти через:  Facebook Google Twitter Vk Yandex Mail.ru

Arctic Monkeys - Dangerous Animals - текст песни, таба, бас-таба, видео

Печатать
Просмотров: 559
Авторы музыки: Jamie ’Cookie’ Cook, Nick O'Malley, Matt Helders, Alex Turner
Авторы текста: Alex Turner
This is the solo for Dangerous Animals by Arctic Monkeys, form their album Humbug.

Tabbed by: Abraham Castañeda (Beby)

e|-----------------------------------------------------------------------------------------------|
B|-------------------\9-8---6-8-14b15-11-14-11-8-------------------------------------------------|
G|------------\8-7--------------------------------6-7---6-7--------------------------------------|
D|-\6-5-----------------------------------------------8----8---5--5-8-6-5-5-8-10-11b--10-11-10-8~|
A|-----------------------------------------------------------------------------------------------|
E|-----------------------------------------------------------------------------------------------|


e|----------------|
B|-----------9-8--|
G|-8-----8-7------|
D|---8-7----------|
A|----------------|
E|----------------|


guitar 2 does the main riff
e|-------------------------------|
B|-------------------------------|
G|-------------------------------|
D|-------------------------------|
A|-------6-------4h5-------------|
E|3----------6-----------4-------|


in this part of the solo:
G|6-7---6-7-|
D|----8----8|

guitar 2 instead of the hammer-on interrupts the riff with:
A|4-5---4-5-|
E|----6----6|


and ends doing the same notes like guitar 1 but one octave lower


e|----------------|
B|----------------|
G|----------------|
D|-----------6-5--|
A|-6-----6-5------|
E|---6-5----------|
Добавлено: 24.05.2012
Другие материалы по этой песне:

Страница создана 02.03.2012
http://primanota.ru/arctic-monkeys/dangerous-animals-chords.htm
Привет, Гость.
Предлагаем пройти революционный курс по гитаре.
Подарок от PrimaNota.Ru, забирай!