PrimaNota.ru - самый крупный в мире бесплатный архив песенных текстов, аккордов, табулатур и нот


The Arcs - Searching The Blue - аккорды и текст, видео

Регистрация Запомнить меня
Войти через:  Facebook Google Twitter Vk Yandex Mail.ru

The Arcs - Searching The Blue - аккорды и текст, видео

Печатать
Просмотров: 131
Searching The Blue
The Arcs
Intro
 Ab
E|----------------------------4-----------------------
B|-----4--6-----4-------4--6-----6--4-------4--6-----4--
G|--5--------5-------5-------------------5--------5------
D|--------------------------------------------------
A|--------------------------------------------------
E|--------------------------------------------------
Ab
War is over now

I feel my mind returning

Carried on a cloud
                             Fm
Every nerve was burning over you
               Bbm
I never had a need at all for anyone
                  
Anyone other than you
                Eb
But now that's through
    Eb7
So through
      Db
We're prayin' to get it fast
       Cm
And we pray it's in the past
     Bbm                     Ab   
Is anything we do ever gonna last?
                   Bbm
Couldn't I have a clue?
              Ab
Searching the blue
                   Bbm
Couldn't I have a clue?
               
Searching the blue
              Gb   Eb/G          
Searching the blue

 Ab
E|----------------------------4-----------------------
B|-----4--6-----4-------4--6-----6--4-------4--6-----4--
G|--5--------5-------5-------------------5--------5------
D|--------------------------------------------------
A|--------------------------------------------------
E|--------------------------------------------------

Ab
The lay of land disease

I can't handle even

The right that we receive

Have clouded beyond reason
           Fm
Still with me
                Bbm
Human knows its self throughout without a doubt
                                Eb       Eb7
For better, for worse we will remain the same
       Db
We're praying to get it fast
        Cm
And we pray it's in the past
   Bbm                       Ab                       
Is anything we do ever gonna last?

 Bbm
Couldn't I have a clue?
              Ab
Searching the blue
                   Bbm
Couldn't I have a clue?
               
Searching the blue
               Gb   Eb/G          
Searching the blue
Добавлено: 16.05.2016
Другие материалы по этой песне:
  • Аккорды и текст

Страница создана 16.05.2016
http://primanota.ru/arcs/searching-blue-chords.htm
Привет, Гость.
Предлагаем пройти революционный курс по гитаре.
Подарок от PrimaNota.Ru, забирай!