PrimaNota.ru - самый крупный в мире бесплатный архив песенных текстов, аккордов, табулатур и нот


The Arcs - Outta My Mind - аккорды и текст, таба, видео

Регистрация Запомнить меня
Войти через:  Facebook Google Twitter Vk Yandex Mail.ru

The Arcs - Outta My Mind - аккорды и текст, таба, видео

Печатать
Просмотров: 98
Outta My Mind
The Arcs
Chords sound best played this way
  C#   C#7  F#m7
E|-4----4----9------|
B|-6----6----10-----|
G|-6----4----9------|
D|-6----6----11-----|
A|-4----4----9------|
E|-4----4----9------|

Intro
   C#    C#7     F#m7
E|-----------------------------|
B|-----------------------------|
G|-----8--6-----------8--6--9--|
D|--6--------6-----6-----------|
A|-----------------------------|
E|-----------------------------|

C#         C#7             F#m7
I heard I lost my self control
C#       C#7              F#m7
But everything I did just went and turned to gold
C#         C#7             F#m7
I love the pictures on the wall
C#        C#7          F#m7
Reminding me of what I lost to get it all
          C#          F#m7
Outta my mind, but I made it
          C#        F#m7
Outta my mind, I'm faded
           A
Outta my mind
     F#m            F#m/E     A      A/G#
The ones I love have left my side
         C#          F#m7
Outta my mind, but I made it, yeah

C#        C#7               F#m7
I'm old enough to know the game
C#           C#7            F#m7
But pushing buttons now is all that keeps me sane
C#   C#7             F#m7
What about tomorrow night?
C#    C#7             F#m7
Maybe we can take too much and start a fight
          C#          F#m7
Outta my mind, but I made it
          C#         F#m7
Outta my mind, I'm faded
         A
Outta my mind
    F#m             F#m/E        A     A/G#
The ones I love have left my side
         C#         F#m7
Outta my mind, but I made it, yeah

E|------------------------------------|
B|------------------------------------|
G|------------------------------------|
D|------------------------------------|
A|--7--7--7--4------------------------|
E|------------------7--7--7--4-----2--|

   B               C#
E|--------------|
B|--------------|
G|--------------|
D|--------------|
A|--2-----2--4--|
E|-----4--------|
             Somebody help me now
B            C# 
             Because I'll come around
B            C#                    G#  
             If you don't I'll sit dow

C#    C#7     F#m7   C#  C#/B  F#/Bb  F#m/A

N/C
Outta my mind, but I made it
Outta my mind, I'm faded
           A
Outta my mind
    F#m              F#m/E        A   A/G#
The ones I love have left my side
         C#          F#m7
Outta my mind, but I made it, yeah
Добавлено: 16.05.2016
Другие материалы по этой песне:
  • Аккорды и текст

Страница создана 16.05.2016
http://primanota.ru/arcs/outta-my-mind-chords.htm
Привет, Гость.
Предлагаем пройти революционный курс по гитаре.
Подарок от PrimaNota.Ru, забирай!