PrimaNota.ru - самый крупный в мире бесплатный архив песенных текстов, аккордов, табулатур и нот


The Arcs - My Mind - бас-таба, видео

Регистрация Запомнить меня
Войти через:  Facebook Google Twitter Vk Yandex Mail.ru

The Arcs - My Mind - бас-таба, видео

Печатать
Просмотров: 60
-------------------------------------------------------------------------------
                             MY MIND - The Arcs
-------------------------------------------------------------------------------
Tabbed by: TheInfrareds
E-mail: theinfrareds@gmail.com

Tuning:EADG

G|---------------------7-------------------------------------------------------------|
D|------------------10---10---10--------------10-------------------------------------|
A|--8---8------8-10----------------7---8-9-10------7-10/12-10---7------10/12-10------|
E|----8---8-10--------------8----8---8-----------8------------8---8-10---------------|

G|-----------------------------------------------------------------------------------|
D|-10-7-10-7------------------------------------7--7---------------------------------|
A|-----------10-8-7---7---7-------------------7------------7---8--9---10-1098--------|
E|------------------8---8---8-10-8-7-57588755----5--5-55-8---8---8--8----------------|

G|-------99-9-7----------------------------------------------------7-----------------------|
D|-----9-------9/7-7--------------------------------------------10-------------------------|
A|-7-7---------------7-------------3-00-4-00-5-0-6-0-7-0-8-8-8-------8-8--------8----------|
E|---------------------5x5753-5-55---------------------------------------8-10-8---8--------|

G|-------7--------------------------------------------------------------------|
D|---------10---7--8--9/10-10---------10----10-----10----10-------------------|
A|-8-8-8------8--8--8-----------10/12----12----12/----12----12-10-------------|
E|----------------------------8-----------------------------------12-10-------|

G|--------10----10-7--------------------------------------------------------------|
D|-----10----10------10-7-------7-8-9-9--10-10-10-1010-10-7-----------------------|
A|-8-8--------------------8-8-8--8-8---8--------------------10-7-----7-8-9-10-----|
E|-----------------------------------------8---------------------8-8--8-8---------|

G|---------------------9-9-7--------------------------------------------9--99-----|
D|-10-7-10-7---------9--9---9-8-77------7--------7--7/10-7-x-10-7------9-9--------|
A|----------10-8-7-7--------------7----7-7-----10-10-------------10-8-7---7-------|
E|----------------------------------8-5---5-88------------------------------------|

G|-x-9-7---------------------------|
D|-------9-8-77-5--------------7---|
A|----------------7-5---------7-7--|
E|--------------------8-7-5-5----5-|

G|-----10-77-------------------------10---------------------------------------------|
D|-----------10-7-----------7-8-9-10----10-10-7-----------------------------------|
A|-8-8------------10-8-x-88--8-8----------------10-7------789-------------------------|
E|---------------------------------------------------8-8-8--------------------|

G|----------------------------------------------------9------------------------|
D|-----------------10--------------------------------9-9-9-9/7-7--------7------|
A|-----10-10/12-12----12-10----------7-10-10-9-8-7-7----7-7-----7------7-7-----|
E|-8-8----------------------12-10--8------------------------------8/5-5----5---|

G|-------------------------------9/12-9--------------------------------------------|
D|-------7--7/10-10-x-10-7-------------12-9----------------------------------------|
A|-----10-10--------------10-8-7------------12-10-9--------------------------------|
E|-8-8----------------------------------------------12-10-8-5----------------------|
  





That's all I've got of the bass line right now. Just listen to the song a lot to get a feel for the bass line.
A lot of it would just be improvising using those notes, so just mess around with it a bit and see what you can
get! Have fun!
| /  slide up
| \  slide down
| h  hammer-on
| p  pull-off
| ~  vibrato
| +  harmonic
| x  Mute note
===============================================================================
Добавлено: 27.02.2016
Другие материалы по этой песне:
  • Аккорды и текст

Страница создана 27.02.2016
http://primanota.ru/arcs/my-mind-chords.htm
Привет, Гость.
Предлагаем пройти революционный курс по гитаре.
Подарок от PrimaNota.Ru, забирай!