PrimaNota.ru - самый крупный в мире бесплатный архив песенных текстов, аккордов, табулатур и нот


The Arcs - Come And Go - бас-таба, видео

Регистрация Запомнить меня
Войти через:  Facebook Google Twitter Vk Yandex Mail.ru

The Arcs - Come And Go - бас-таба, видео

Печатать
Просмотров: 63
-------------------------------------------------------------------------------
                             COME AND GO - The Arcs
-------------------------------------------------------------------------------
Tabbed by: TheInfrareds
E-mail: theinfrareds@gmail.com

Tuning:EADG

Bass comes in at the 0:23 second mark.

Intro to Verse                      Verse
G|----------|-----------------------------------------------------------------|
D|----------|----8-6------6-6--------7----------8-6-------6-6--------7--------|
A|----------|--------7-4-7--------6-9--9-6---------7-4-7---------6-9---9-6----|
E|--5-5-5-5-|--4--------------5-7---------7---4---------------5-7----------7--|

G|----------------------------------------------------------------------------|
D|---8-6-------6-6---------7----------8-6-------6-6---------7-----------------|
A|-------7-4-7---------6-9---9-6----------7-4-7---------6-9---9-6-------------|   Repeat Verse
E|-4---------------5-7-----------7--4---------------5-7-----------7-----------|

G|----------------------------------------------------------------------------|
D|---8-6-------6-6---------7----------8-6-------6-6---------7-----------------|
A|-------7-4-7---------6-9---9-6----------7-4-7---------6-9---9-6-------------|
E|-4---------------5-7-----------7--4---------------5-7-----------7-----------|

                                  Chorus                                

G|---------5--------------------------------5---------------------------------|
D|-----5-7---7-5-----------7------------5-7---7-5-----------7-----------------|
A|-3-7-----------7-----6-9---9-6----3-7-----------7-----6-9---9-6-------------|
E|-----------------5-7-----------7------------------5-7-----------7-----------|

G|---------5-------------------------------5----------------------------------|
D|-----5-7---7-5-----------7-----------5-7---7-5------------------------------|
A|-3-7-----------7-----6-9---9-6---3-7-----------7-----6-9--------------------|
E|-----------------5-7-----------7-----------------5-7-----5-5-5-5------------|

                               Verse 2

G|---------------------------------------------------------------------------|
D|----8-6-------6-6----------7----------8-6-------6-6----------7-------------|
A|--------7-4-7----------6-9---9-6----------7-4-7----------6-9---9-6---------| X 2
E|--4----------------5-7-----------7--4----------------5-7-----------7-------|

                             Chorus 2

G|---------5--------------------------------5---------------------------------|
D|-----5-7---7-5-----------7------------5-7---7-5-----------7-----------------|
A|-3-7-----------7-----6-9---9-6----3-7-----------7-----6-9---9-6-------------|
E|-----------------5-7-----------7------------------5-7-----------7-----------|

G|---------5-------------------------------5----------------------------------|
D|-----5-7---7-5-----------7-----------5-7---7-5------------------------------|
A|-3-7-----------7-----6-9---9-6---3-7-----------7-----6-9--------------------|
E|-----------------5-7-----------7-----------------5-7-----5-5-5-5------------|

                               Guitar Solo
 
G|---------------------------------------------------------------------------|
D|----8-6-------6-6----------7----------8-6-------6-6----------7-------------|
A|--------7-4-7----------6-9---9-6----------7-4-7----------6-9---9-6---------| 
E|--4----------------5-7-----------7--4----------------5-7-----------7-------|

                              Chorus/Outro

G|---------5--------------------------------5---------------------------------|
D|-----5-7---7-5-----------7------------5-7---7-5-----------7-----------------|
A|-3-7-----------7-----6-9---9-6----3-7-----------7-----6-9---9-6-------------|
E|-----------------5-7-----------7------------------5-7-----------7-----------|

G|---------5-------------------------------5----------------------------------|
D|-----5-7---7-5-----------7-----------5-7---7-5------------------------------|
A|-3-7-----------7-----6-9---9-6---3-7-----------7-----6-9--------------------|
E|-----------------5-7-----------7-----------------5-7-----5-5-5-5------------


| /  slide up
| \  slide down
| h  hammer-on
| p  pull-off
| ~  vibrato
| +  harmonic
| x  Mute note
===============================================================================
Добавлено: 27.02.2016
Другие материалы по этой песне:
  • Аккорды и текст

Страница создана 27.02.2016
http://primanota.ru/arcs/come-and-go-chords.htm
Привет, Гость.
Предлагаем пройти революционный курс по гитаре.
Подарок от PrimaNota.Ru, забирай!